Filter - Where Do We Go Chords & Tabs

 

Where Do We Go Chords & Tabs

Filter Chords & Tabs

Version: 6 Type: Tab 0 ratings
1 star 2 stars 3 stars 4 stars 5 stars
comments

Where Do We Go Tab

   
Filter- Where Do We Go
Drop D


Intro, verse & chorus-

	Bsus2	D5   G5    Esus2
	|-----|-----|-----|-----|
	|-----|--3--|-----|-----|
	|-11--|--2--|-----|--4--|
	|-11--|--0--|--5--|--4--|
	|-9---|--0--|--5--|--2--|
	|-9---|--0--|--5--|--2--|

Bridge-
[ Tab from: http://www.guitartabs.cc/tabs/f/filter/where_do_we_go_tab_ver_6.html ]
        G5  A#5  D5   C5
     |-------|-----------|
    |-------|------------|
    |-------|------------|
    |--5/8--|--0--10-----|
    |--5/8--|--0--10-----|
    |--5/8--|--0--10-----|

Interlude-

	Bsus2   Bsus2/E   G5  D5
	|--2----2----------------|
	|--2----2---------8---3--|
	|--4----4---------7---2--|
	|--4----4---------5---0--|
	|--2----2---------5---0--|
	|-------2---------5---0--|

the really short solo played over the bridge is in
D minor, i didn't bother to tab it since it kind of
sucks, so go learn that scale, add a few more measures
of the bridge and come up with something more exciting.
D dorian and D phrygian sound good too.
Comments