Filter - The Only Way Chords & Tabs

 

The Only Way Chords & Tabs

Filter Chords & Tabs

Version: 1 Type: Tab 0 ratings
1 star 2 stars 3 stars 4 stars 5 stars
comments

The Only Way Tab

   
Song Title: The Only Way (Is The Wrong Way)
Artist: Filter
Album: The Amalgamut
Tabbed by GuitarSuperstar

Tuning (low to high): D A D G B e

Listen to the song for strumming pattern. 
[ Tab from: http://www.guitartabs.cc/tabs/f/filter/the_only_way_tab.html ]
Intro and Verse
e--------------------------------------------------------------
B--------------------------------------------------------------
G-11-11-11-11-11-11-11-11-12-11-18-16-14-----------------------
D--X--X--X--X--X--X--X--X--X--X--X--X--X--X--X--X--X--X--X--X--
A--9--9--9--9--9--9--9--9-10--9-16-14-12-12-12-12-12-12-12-12--
D--0--0--0--0--0--0--0--0--0--0--0--0-12-12-12-12-12-12-12-12--

Pre-Chorus chords
e----X---X---X----
B----X---X---X----
G----9---7---5----
D----9---7---5----
A----7---5---3----
D----7---5---3----

Chorus chords
e----X----X----X----
B----X----3----X----
G----7----2----9----
D----7----0----9----
A----5----0----7----
D----5----0----7----

End Chorus on:
e----X----
B----X----
G----7----
D----7----
A----5----
D----5----
Comments