Filter - So I Quit Chords & Tabs

 

So I Quit Chords & Tabs

Filter Chords & Tabs

Version: 2 Type: Tab 0 ratings
1 star 2 stars 3 stars 4 stars 5 stars
comments

So I Quit Tab

-------------------------------------------------------------------------------
			     So I Quit - Filter
-------------------------------------------------------------------------------

By: ChaserJZ@aol.com

Drop D Tune
This is just a rough version of the song for those of you wanting to 
play the song, but don't know the chords.  You'll have to listen to the 
song a few times to get the rhythm of it. 
Intro and Verse:
e|---------------------------------------------------------------------------|
B|---------------------------------------------------------------------------|
G|---------------------------------------------------------------------------|
D|3p00h3p00h30h300h300h30h300h300h30\666666----------------------------------|
A|3p00h3p00h30h300h300h30h300h300h30\666666----------------------------------|
D|3p00h3p00h30h300h300h30h300h300h30\666666----------------------------------|
[ Tab from: http://www.guitartabs.cc/tabs/f/filter/so_i_quit_tab_ver_2.html ]
Chorus:
e|---------------------------------------------------------------------------|
B|---------------------------------------------------------------------------|
G|---------------------------------------------------------------------------|
D|2060462040604--------------------------------------------------------------|
A|2060462040604--------------------------------------------------------------|
D|2060462040604--------------------------------------------------------------|
Bridge:
e|---------------------------------------------------------------------------|
B|---------------------------------------------------------------------------|
G|5-7-5-------5-7-5---5-5-7-5-------5-7-5---5----:---------------------------|
D|5-7-5-0-3-0-5-7-5-0-5-5-7-5-0-3-0-5-7-5-0-5----:---------------------------|
A|3-5-3-0-3-0-3-5-3-0-3-3-5-3-0-3-0-3-5-3-0-3----:---------------------------|
D|------0-3-0-------0---------0-3-0-------0------:---------------------------|


===============================================================================

Comments