Filter - So I Quit Chords & Tabs

 

So I Quit Chords & Tabs

Filter Chords & Tabs

Version: 1 Type: Tab 0 ratings
1 star 2 stars 3 stars 4 stars 5 stars
comments

So I Quit Tab

   
song:  So I Quit
band:  Filter
Album: The Amalgamut
Tuning: Drop-D


tabbed by: 'Nufan' - Peter Tom Takaro 
problems & feedback on nouseforaname@freemail.hu


keys,               

x   = strum muted strings / mute string
~   = let ring

****Intro/Verse****

E|--------------------------------------------------------------------|
B|--------------------------------------------------------------------|
G|--------------------------------------------------------------------|
D|-3-0-0-3-0-0-3-0--3-0-0-3-0-0-3-0--3-0-0-3-0-0-3-0--6-6-6-6-6-6-6-6-|
A|-3-0-0-3-0-0-3-0--3-0-0-3-0-0-3-0--3-0-0-3-0-0-3-0--6-6-6-6-6-6-6-6-|
D|-3-0-0-3-0-0-3-0--3-0-0-3-0-0-3-0--3-0-0-3-0-0-3-0--6-6-6-6-6-6-6-6-|

****Chorus****

'cause you don't need to...'
E|----------------------------------------------------------|
B|----------------------------------------------------------|
G|-------------12-12--12-12-12--7-7--7-7-7--10-10--10-10-10-|
D|-0-0--0-0-0--12-12--12-12-12--7-7--7-7-7--10-10--10-10-10-|
A|-0-0--0-0-0--10-10--10-10-10--5-5--5-5-5---8--8---8--8--8-|
D|-0-0--0-0-0--10-10--10-10-10--5-5--5-5-5---8--8---8--8--8-|

Chorus ending
[ Tab from: http://www.guitartabs.cc/tabs/f/filter/so_i_quit_tab.html ]
                                            'so I quit'
E|----------------------------------------------------------|
B|----------------------------------------------------------|
G|-------------12-12--12-12-12--7-7--7-7-7------------------|
D|-0-0--0-0-0--12-12--12-12-12--7-7--7-7-7--3-0-0-3-0-0-3-0-|
A|-0-0--0-0-0--10-10--10-10-10--5-5--5-5-5--3-0-0-3-0-0-3-0-|
D|-0-0--0-0-0--10-10--10-10-10--5-5--5-5-5--3-0-0-3-0-0-3-0-|


****Bridge****

Guitar 1
E|--------------------------------------------------------------------|
B|--------------------------------------------------------------------|
G|--------------------------------------------------------------------|
D|-3-0-0-3-0-0-3-0--3-0-0-3-0-0-3-0--3-0-0-3-0-0-3-0--6-6-6-6-6-6-6-6-|
A|-3-0-0-3-0-0-3-0--3-0-0-3-0-0-3-0--3-0-0-3-0-0-3-0--6-6-6-6-6-6-6-6-|
D|-3-0-0-3-0-0-3-0--3-0-0-3-0-0-3-0--3-0-0-3-0-0-3-0--6-6-6-6-6-6-6-6-|

Guitar 2
E|--------------------------------------------------------------------|
B|--11-11-11-11-11-11-11-11-11-11-11-11-11-11-11-11-------------------|
G|---x--x--x--x--x--x--x--x--x--x--x--x--x--x--x--x-------------------|
D|---8--8--8--8--8--8--8--8--8--8--8--8--8--8--8--8---6-6-6-6-6-6-6-6-|
A|----------------------------------------------------6-6-6-6-6-6-6-6-|
D|----------------------------------------------------6-6-6-6-6-6-6-6-|


****Interlude****

E|--------------------------------------------------------------------|
B|--------------------------------------------------------------------|
G|--------------------------------------------------------------------|
D|-10--12-12--6--3-3--5--3---10--12-12--6--3-3--5~--------------------|
A|-10--12-12--6--3-3--5--3---10--12-12--6--3-3--5~--------------------|
D|-10--12-12--6--3-3--5--3---10--12-12--6--3-3--5~--------------------|


fun song...hope you enjoy it!
Comments