Filter - Jurassitol Chords & Tabs

 

Jurassitol Chords & Tabs

Filter Chords & Tabs

Version: 3 Type: Bass Tab 0 ratings
1 star 2 stars 3 stars 4 stars 5 stars
comments

Jurassitol Bass Tab

Jurassitol Bass Tab
Performed By Filter on The Crow: City Of Angels Soundtrack

Intro/Verse 1(w/ slight distortion or fuzz)
G-------------------------------------------
D-------------------------------------------
A-------------------------------------------
E-0-0-10-0-12-0-10-0-0-10-0-10-0-12---------

Chorus(When will you learn...)
G-------------------------------------------
D-------------------------------------------
A-------------------------------------------
E--12--------3--------5---------------------

Verse 2
[ Tab from: http://www.guitartabs.cc/tabs/f/filter/jurassitol_btab_ver_3.html ]
G-------------------------------------------
D-------------------------------------------
A-------------------------------------------
E-0-0-10-0-12-0-10--3--4--5--6--------------

Chorus 2
Same as first

Bridge(Will she pay my debts...)
G------------------------------
D------------------------------
A------------------------------
E--6---3---4---5---------------

Ending(Hey old man got something for you....)
G-------------------------------------------
D-------------------------------------------
A-------------------------------------------
E-0-0-0-0-0-0-0-0-12-12-12-12-0-10-12-0-----

Corrections, comments, death threats...
christopher@gbamed.com


Comments