Filter - Its Gonna Kill Me Chords & Tabs

 

Its Gonna Kill Me Chords & Tabs

Filter Chords & Tabs

Version: 2 Type: Bass Tab 0 ratings
1 star 2 stars 3 stars 4 stars 5 stars
comments

Its Gonna Kill Me Bass Tab

Filter
"Its gonna kill me"
Title of the record
Tabbed by Kevin Donovan

Intro…
D-----------------------------------------------------------
A-----------------------------------------------------------
D--0-0-0-0-7-7-7--10-10-10-0-0-0--6-6-6------------
[ Tab from: http://www.guitartabs.cc/tabs/f/filter/its_gonna_kill_me_btab_ver_2.html ]
Verse…
D------------------------------------------------------------
A------------------------------------------------------------
D---0-0-0--7-7-11-11-0-0-0-3-3--rest--6--------------

Chorus…
D-----------------------------------------------------------
A-----------------------------------------------------------
D----7-7-7-10-10-10---0-0---3-3--5-5-3-3-0---------

Break down…
D-------------------------------------
A--------------------------------------
D--0----5---6----0---9---10---------

Comments