Filter - It Can Never Be The Same Chords & Tabs

 

It Can Never Be The Same Chords & Tabs

Filter Chords & Tabs

Version: 1 Type: Tab 0 ratings
1 star 2 stars 3 stars 4 stars 5 stars
comments

It Can Never Be The Same Tab

Artist: Filter
Song: It Can Never Be The Same
Album: Amalgamut
Tabbed by: Arpegoss (index2o@hotmail.com)

Tuning: Standard
Distortion: Heavy

x: Dead note
~: Hold note

INTRO:
(those are feedback and studio sounds)

1:-------------------------|
2:-------------------------|
3:-------------------------|
4:-3-0-5--3-0-6--3---------|
5:-3-0-5--3-0-6--3---------|
6:-1-0-3--1-0-4--1---------|

CHORUS:
[ Tab from: http://www.guitartabs.cc/tabs/f/filter/it_can_never_be_the_same_tab.html ]
1:------------------------------------------------------------------------------------------------|
2:------------------------------------------------------------------------------------------------|
3:-6--6-6-6-6-6-6-6-6-6-6--7--7-7-7-7-7-7-7-7-7-7-------------------------------------------------|
4:-6--6-6-6-6-6-6-6-6-6-6--7--7-7-7-7-7-7-7-7-7-7--6--6-6-6-6-6-6-6-6-6-6--5--5-5-5-5-5-5-5-5-5-5-|
5:-4--4-4-4-4-4-4-4-4-4-4--5--5-5-5-5-5-5-5-5-5-5--6--6-6-6-6-6-6-6-6-6-6--5--5-5-5-5-5-5-5-5-5-5-|
6:-------------------------5--5-5-5-5-5-5-5-5-5-5--4--4-4-4-4-4-4-4-4-4-4--3--3-3-3-3-3-3-3-3-3-3-|

1:-------------------------------------------------------------------------------------------|
2:-------------------------------------------------------------------------------------------|
3:--6--6-6-6-6-6-6-6-6-6-6--7~~~~~~~~~~~~~~~~~~~~~-------------------------------------------|
4:--6--6-6-6-6-6-6-6-6-6-6--7~~~~~~~~~~~~~~~~~~~~~--6--6-6-6-6-6-6-6-6-6-6--3-0-5--3-0-6--3--|
5:--4--4-4-4-4-4-4-4-4-4-4--5~~~~~~~~~~~~~~~~~~~~~--6--6-6-6-6-6-6-6-6-6-6--3-0-5--3-0-6--3--|
6:--------------------------5~~~~~~~~~~~~~~~~~~~~~--4--4-4-4-4-4-4-4-4-4-4--1-0-3--1-0-4--1--|

BRIDGE:

1:--------------------------|
2:------------------7-7-7---|
3:------------7-7-7-7-7-7-7-|
4:--x-x-x-x-x-7-7-7-7-7-7-7-|
5:--x-x-x-x-x-5-5-5-5-5-5-5-|
6:--x-x-x-x-x---------------|
                
that's it, play it loud...
Comments