Filter - Captain Bligh Chords & Tabs

 

Captain Bligh Chords & Tabs

Filter Chords & Tabs

Version: 2 Type: Bass Tab 0 ratings
1 star 2 stars 3 stars 4 stars 5 stars
comments

Captain Bligh Bass Tab

Filter
Captain Bligh
Title of the record
Tabbed by Kevin Donovan

Bass comes in after 1st verse with the second guitar

D--------------------------------just slide back and forth between the frets
A--------------------------------
D--10--10--12--12------------
[ Tab from: http://www.guitartabs.cc/tabs/f/filter/captain_bligh_btab_ver_2.html ]
"And the time has come…"
D----------------------------
A----------------------------
D---5-------3--------1------

Chorus…
D-------------------------------------------
A-------------------------------------------
D---5---7---0-3---3-0-0-3-0-0----------

"So you think its you…"
D--------------------------------------
A--------------------------------------
D--------5----------------------------
That's all there is too it. Just need to get the timing off the cd. Have fun.4

Comments