Filaments - Authorities Demise Chords & Tabs

 

Authorities Demise Chords & Tabs

Filaments Chords & Tabs

Version: 1 Type: Tab 0 ratings
1 star 2 stars 3 stars 4 stars 5 stars
comments

Authorities Demise Tab

The Filaments - Authorities Demise

Tabbed by dave
dave_robinson25@msn.com

Intro

e|---------------------------------------------------------------------------|
B|---------------------------------------------------------------------------|
G|---------------------------------------------------------------------------|
D|---10----------------6--2--------------------------------------------------|
A|---10----------------6--2--------------------------------------------------|
E|---8-----8-10-11-10--4--0--------------------------------------------------|
           * *  *  *


Verse

e|---------------------------------------------------------------------------|
B|---------------------------------------------------------------------------|
G|---------------------------------------------------------------------------|
D|-----10-10-8--10-10-8--10-10-8--10-10-6--5---------------------------------|
A|-----10-10-8--10-10-8--10-10-8--10-10-6--5---------------------------------|
E|-----8--8--6--8--8--6--8--8--6--8--8--4--3---------------------------------|


Chorus
[ Tab from: http://www.guitartabs.cc/tabs/f/filaments/authorities_demise_tab.html ]
e|---------------------------------------------------------------------------|
B|---------------------------------------------------------------------------|
G|--------------------------------------9-9-9-9-9-9-9-9----------------------|
D|-----10-13-10-13-10-13-6-6-6-6-6-6-6--9-9-9-9-9-9-9-9----------------------|
A|-----10-13-10-13-10-13-6-6-6-6-6-6-6--7-7-7-7-7-7-7-7----------------------|
E|-----8--11-8--11-8--11-4-4-4-4-4-4-4---------------------------------------|

Last bit of chorus just before the verse

e|---------------------------------------------------------------------------|
B|---------------------------------------------------------------------------|
G|---------------------------------------------------------------------------|
D|---6-6-6-6-6-6-6-3-3-3-3-5-5-5-5-------------------------------------------|
A|---6-6-6-6-6-6-6-3-3-3-3-5-5-5-5-------------------------------------------|
E|---4-4-4-4-4-4-4-1-1-1-1-3-3-3-3-------------------------------------------|

Bit before the solo

e|---------------------------------------------------------------------------|
B|---------------------------------------------------------------------------|
G|---------------------------------------------------------------------------|
D|---10-10-10-10-10-10---6-6-6-6-6-6-----------------------------------------|
A|---10-10-10-10-10-10---6-6-6-6-6-6-----------------------------------------|
E|---8--8--8--8--8--8----4-4-4-4-4-4-----------------------------------------|

Palm muted in bits
Comments