Fightstar - Until Then Chords & Tabs

 

Until Then Chords & Tabs

Fightstar Chords & Tabs

Version: 3 Type: Tab 0 ratings
1 star 2 stars 3 stars 4 stars 5 stars
comments

Until Then Tab

   
Artist: FightStar
Song: Until Then
Album: Paint You Target (Single)

Tabbed by: John O'Nolan, Copyright 2005, All rights reserved.

Tuning: drop-D - ( D/A/D/G/B/e )
Effects: Heavy Distortion

p  = pull
h  = hammer
/  = slide up
\\ = slide down
~  = let ring
c  = continueous picking/strumming
m  = half mute
x  = complete mute
^  = bend up



-=> 1st Guitar Part - Charlie Simpson <=-



=>INTRO<= (Clean)
e |--------------------------------------|
B |--------------------------------------|
G |--------------------------------------|
D |--------------------------------------|
A |-5----1---05----1---05----1---05----1-|
D |-5----1---05----1---05----1---05----1-|


=>Verse<= (Clean)
e |--------------------------------------|
B |--------------------------------------|
G |--------------------------------------|
D |--------------------------------------|
A |-5----1---05----1---05----1---05----1-| (Times 2)
D |-5----1---05----1---05----1---05----1-|
    People ask...

=>Verse<= (Heavy Distortion)
e |--------------------------------------|
B |--------------------------------------|
G |-7----3---37----3---37----3---37----3-|
D |-5----1---05----1---05----1---05----1-|
A |-5----1---05----1---05----1---05----1-|
D |-5----1---05----1---05----1---05----1-|

=>Verse<= (Clean)
e |--------------------------------------|
B |--------------------------------------|
G |--------------------------------------|
D |--------------------------------------|
A |-5----1---05----1---05----1---05----1-| (Times 2)
D |-5----1---05----1---05----1---05----1-|
    A kiss cause I...

=>Verse<= (Heavy Distortion)
e |--------------------------------------|
B |--------------------------------------|
G |-7----3---37----3---37----3---37----3-|
D |-5----1---05----1---05----1---05----1-|
A |-5----1---05----1---05----1---05----1-|
D |-5----1---05----1---05----1---05----1-|
              No way...

=>Chorus<=
e |------------------|-------------------|
B |------------------|-------------------|
G |------------------|--7c-----11c-------|
D |--9c------5c------|--5c------9c-------| (Times 2)
A |--7c------3c------|--5c------9c-------|
D |------------------|--5c------9c-------|
   Well i'm trying...


=>Bass Solo<=
e |--------------------------------------|
B |--------------------------------------|
G |--------------REST-WHILE--------------|
D |-----------BASS-PLAYS-INTRO-----------| (Times 2)
A |--------------------------------------|
D |--------------------------------------|
   All you do is talk about it...


=>Bass Solo<=(Play quietly getting louder)
e |--------------------------------------|
B |--------------------------------------|
G |--------------------------------------|
D |--------------------------------------|
A |-17-------15-------13--------12----7C-|
D |--------------------------------------|
   All you do is talk about it.. (Scream)


=>Verse<= (Heavy Distortion)
e |--------------------------------------|
B |--------------------------------------|
G |-7----3---37----3---37----3---37----3-|
D |-5----1---05----1---05----1---05----1-|
A |-5----1---05----1---05----1---05----1-|
D |-5----1---05----1---05----1---05----1-|


=>Chorus<=
e |------------------|-------------------|
B |------------------|-------------------|
G |------------------|--7c-----11c-------|
D |--9c------5c------|--5c------9c-------| (Times 2)
A |--7c------3c------|--5c------9c-------|
D |------------------|--5c------9c-------|
   Well i'm trying...


=>Break<=
e |--------------------|
B |-------REST---------|
G |--WHILE-2nd-GUITAR--|
D |-------PLAYS--------|
A |--------------------|
D |--------------------|

=>Break<=
e |--------------------|
B |--------------------|
G |--7---12----5---14--|
D |--5---10----3---12--| (Times 2)
A |--5---10----3---12--|
D |--5---10----3---12--|

=>Break<=
e |-----------------------|
B |-----------------------|
G |--7---12----5---14-----|
D |--5---10----3---12-----|
A |--5---10----3---12--0~-|
D |--5---10----3---12--0~-|


=>BRIDGE<= (Clean)
e |-------------------------------------------------------------|
B |-------------------------------------------------------------|
G |--11c------14c---12c--11c-9c-11c------14c---12c--11c-9c-11c--|
D |-------------------------------------------------------------| (Times 3)
A |-------------------------------------------------------------|
D |-------------------------------------------------------------|
     It's only a matter of time...

=>BRIDGE<= (Clean)
e |---------------------------------|
B |---------------------------------|
G |--11c------9c-----7c--6c-----2c--|
D |---------------------------------|
A |---------------------------------|
D |---------------------------------|
   Until we break...

=>BRIDGE<= (Clean)
e |---------------------------------|
B |---------------------------------|
G |--11c--14c-9c-11c-7c--6c-----2c--|
D |---------------------------------|
A |---------------------------------|
D |---------------------------------|
   I'll be waiting...

[ Tab from: http://www.guitartabs.cc/tabs/f/fightstar/until_then_tab_ver_3.html ]
=>OUTRO<= (Distorted)
e |------------------------|
B |------------------------|
G |--2c----9c---11c----7c--|
D |--0c----7c----9c----5c--| (Times 4)
A |--0c----7c----9c----5c--|
D |--0c----7c----9c----5c--|
     I'll find you...


=>Ending<=
e |------|
B |------|
G |------|
D |--0~--|
A |--0~--|
D |--0~--|



***************************************************************************************



-=> 2nd Guitar Part - Alex Westaway <=-




=>INTRO<= (Clean)
e |--------------------------------------|
B |--------------------------------------|
G |--------------------------------------|
D |-12---8---12----8---12----8---12----8-|
A |-10---6---10----6---10----6---10----6-|
D |--------------------------------------|


=>Verse<= (Clean)
e |--------------------------------------|
B |--------------------------------------|
G |--------------------------------------|
D |-12---8---12----8---12----8---12----8-|
A |-10---6---10----6---10----6---10----6-|(Times 2)
D |--------------------------------------|
    People ask...

=>Verse<= (Heavy Distortion)
e |--------------------------------------|
B |--------------------------------------|
G |-7----3---37----3---37----3---37----3-|
D |-5----1---05----1---05----1---05----1-|
A |-5----1---05----1---05----1---05----1-|
D |-5----1---05----1---05----1---05----1-|

>Verse<= (Clean
e |--------------------------------------|
B |--------------------------------------|
G |--------------------------------------|
D |-12---8---12----8---12----8---12----8-|
A |-10---6---10----6---10----6---10----6-|(Times 2)
D |--------------------------------------|
    A kiss cause I...

=>Verse<= (Heavy Distortion)
e |--------------------------------------|
B |--------------------------------------|
G |-7----3---37----3---37----3---37----3-|
D |-5----1---05----1---05----1---05----1-|
A |-5----1---05----1---05----1---05----1-|
D |-5----1---05----1---05----1---05----1-|
              No way...

=>Chorus<=
e |------------------|-------------------|
B |------------------|-------------------|
G |--16c-----12c-----|--7c-----11c-------|
D |--16c-----12c-----|--5c------9c-------| (Times 2)
A |------------------|--5c------9c-------|
D |------------------|--5c------9c-------|
   Well i'm trying...


=>Bass Solo<=
e |--------------------------------------|
B |--------------------------------------|
G |--------------REST-WHILE--------------|
D |-----------BASS-PLAYS-INTRO-----------| (Times 2)
A |--------------------------------------|
D |--------------------------------------|
   All you do is talk about it...


=>Bass Solo<=(Play quietly getting louder)
e |--------------------------------------|
B |--------------------------------------|
G |--------------REST-WHILE--------------|
D |-----------BASS-PLAYS-INTRO-----------|
A |--------------------------------------|
D |--------------------------------------|
   All you do is talk about it.. (Scream)


=>Verse<= (Heavy Distortion)
e |--------------------------------------|
B |--------------------------------------|
G |-7----3---37----3---37----3---37----3-|
D |-5----1---05----1---05----1---05----1-|
A |-5----1---05----1---05----1---05----1-|
D |-5----1---05----1---05----1---05----1-|


=>Chorus<=
e |------------------|-------------------|
B |------------------|-------------------|
G |--16c-----12c-----|--7c-----11c-------|
D |--16c-----12c-----|--5c------9c-------| (Times 2)
A |------------------|--5c------9c-------|
D |------------------|--5c------9c-------|
   Well i'm trying...


=>Break<=
e |--------------------|
B |--------------------|
G |--7---12----5---14--|
D |--5---10----3---12--|
A |--5---10----3---12--|
D |--5---10----3---12--|

=>Break<=
e |--------------------|
B |--------------------|
G |--7---12----5---14--|
D |--5---10----3---12--| (Times 2)
A |--5---10----3---12--|
D |--5---10----3---12--|

=>Break<=
e |-----------------------|
B |-----------------------|
G |--7---12----5---14-----|
D |--5---10----3---12-----|
A |--5---10----3---12--0~-|
D |--5---10----3---12--0~-|


=>BRIDGE<= (Clean)
e |-------------------------------------------------------------|
B |-------------------------------------------------------------|
G |-----------------REST-WHILE-1st-GUITAR-PLAYS-----------------|
D |-------------------------------------------------------------| (Times 3)
A |-------------------------------------------------------------|
D |-------------------------------------------------------------|
     It's only a matter of time...

=>BRIDGE<= (Clean)
e |---------------------------------|
B |---------------------------------|
G |--2c-------9c------11c-------7c--|
D |--0c-------7c-------9c-------5c--|
A |--0c-------7c-------9c-------5c--|
D |--0c-------7c-------9c-------5c--|
   Until we break...

=>BRIDGE<= (Clean)
e |---------------------------------|
B |---------------------------------|
G |--2c-------9c------11c-------7c--|
D |--0c-------7c-------9c-------5c--|
A |--0c-------7c-------9c-------5c--|
D |--0c-------7c-------9c-------5c--|
   I'll be waiting...


=>OUTRO<= (Distorted)
e |------------------------|
B |------------------------|
G |--2c----9c---11c----7c--|
D |--0c----7c----9c----5c--| (Times 4)
A |--0c----7c----9c----5c--|
D |--0c----7c----9c----5c--|
     I'll find you...


=>Ending<=
e |------|
B |------|
G |------|
D |--0~--|
A |--0~--|
D |--0~--|
Comments