Fightstar - Until Then Chords & Tabs

 

Until Then Chords & Tabs

Fightstar Chords & Tabs

Version: 2 Type: Tab 0 ratings
1 star 2 stars 3 stars 4 stars 5 stars
comments

Until Then Tab

   
This is taken from the official video Footage from FightstarMusic.com, so it's not the 
song.

It starts of, just with some chords:

E-C-G-F#
E-C-G-b

(  E  C  G  F#   b
E -------3--2----1---|
B ----1-----2----14--|
G -1--------23---14--|
D -2--2-----24---14--|
A -2--3--2--24---1---|
E -------3--2----1---|)

[When I'm trying hard, to communicate
And it takes me down
When I try to see, what you mean to me
And it takes me on]

Then, first Charlie on guitar 1, then after one time Alex comes in on the second guitar 
plays along for another 3 times:
e----------------------| (End on: ----|
B----------------------|          ----|
G-----555-----77777777-|          -7~-|
D-555-555-333-77777777-|          -7~-|
A-555-333-333-55555555-|          -5~-|
E-333-----111----------|          ----|)
[ Tab from: http://www.guitartabs.cc/tabs/f/fightstar/until_then_tab_ver_2.html ]
Then, I believe it's Alex (on the other hand, in Amsterdam it was Charlie if I'm right), 
this next part 5 times:
e---------------------------------------------------------|
b-7-7-7-7-7-7-7-7-10-10-10-10-10-10-10-10-8-8-8-7-7-7-5-5-|
G---------------------------------------------------------|
D---------------------------------------------------------|
A---------------------------------------------------------|
E---------------------------------------------------------|,
...and ends on
e---------------------------------------------|
b-7-7-7-7-7-7-7-7-10-10-10-10-10-10-10-10-10~-|
G---------------------------------------------|
D---------------------------------------------|
A---------------------------------------------|
E---------------------------------------------|

[Lyrics kick in on third time, at 10:
It's only a matter of time (4x)]

Then it's just Dan on the bass, who plays the next part two times:
G-------------------------------------------------|
D-------------------------------------------------|
A-5~--5-5-5~--------------------------------------|
E-------------5~--5-5-5~--7~--7-7-7~--3~--3-3-3~--|

[Until we break
And you'll be gone
Until the rainfall starts,
Until the lightning strikes your heart
I'll be waiting
I'll be searching on]

e---------------------------------------------------------------------|
B---------------------------------------------------------------------|
G-7777777777777777----------------------------------------------------|
D-7777777777777777-7777777777777777-9999999999999999-5555555555555555-|
A-5555555555555555-7777777777777777-9999999999999999-5555555555555555-|
E------------------5555555555555555-7777777777777777-3333333333333333-|

[I'll find you
I'll find you
I'll take you there
I'll be fine
I'll be fine
Until then]

...And that's it. Any mistakes, questions, whatever..? Just pm me :) Thanx!
Comments