Fightstar - Speak Up Chords & Tabs

 

Speak Up Chords & Tabs

Fightstar Chords & Tabs

Version: 2 Type: Tab 0 ratings
1 star 2 stars 3 stars 4 stars 5 stars
comments

Speak Up Tab

   
Artist: FightStar
Song: Speak Up
Album: They Liked You Better When You Were Dead (EP)

Tabbed by: John O'Nolan, Copyright 2005, All rights reserved.

Tuning: drop-D - ( D/A/D/G/B/e )
Effects: phaser

p  = pull
h  = hammer
/  = slide up
\\ = slide down
~  = let ring
c  = continueous picking/strumming
m  = half mute
x  = complete mute
^  = bend up



-=> 1st Guitar Part - Charlie Simpson <=-



=>INTRO<= (light phaser)
e |-----------------------------------|-----------------------------------|
B |-----------------------------------|-----------------------------------|
G |-----------------------------------|-----------------------------------|
D |-----------------------------------|-----------------------------------|
A |------------------------11---------|------------------------11---------| Times 2
D |-0---0---12-0-0-11p10-0----0-0-3-2-|-0---0---12-0-0-11p10-0----0-0-3-2-|

(note) end intro the last time on:
e |-----|
B |-----|
G |-----|
D |-3-3-|
A |-3-3-|
D |-3-3-|



=>Verse1<=
e |-----------------------------------|-----------------------------------|
B |-----------------------------------|-----------------------------------|
G |-----------------------------------|-----------------------------------|
D |-----------------------------------|-----------------------------------|
A |-0---0---0-0-0--11^----------------|-0---0---0-0-0--11^----------------|
D |-0---0---0-0-0--11^----------------|-0---0---0-0-0--11^----------------|

=>Verse2<=
e |-----------------------------------|
B |-----------------------------------|
G |-----------------------------------|
D |------7c----9c----12c----14c-------|
A |------7c----9c----12c----14c-------|
D |------7c----9c----12c----14c-------|


=>Verse1<=
e |-----------------------------------|-----------------------------------|
B |-----------------------------------|-----------------------------------|
G |-----------------------------------|-----------------------------------|
D |-----------------------------------|-----------------------------------|
A |-0---0---0-0-0--11^----------------|-0---0---0-0-0--11^----------------|
D |-0---0---0-0-0--11^----------------|-0---0---0-0-0--11^----------------|
                     We started running...               But i cant see...
=>Verse1<=
e |-----------------------------------|-----------------------------------|
B |-----------------------------------|-----------------------------------|
G |-----------------------------------|-----------------------------------|
D |-----------------------------------|-----------------------------------|
A |-0---0---0-0-0--11^----------------|-0---0---0-0-0--11^----------------|
D |-0---0---0-0-0--11^----------------|-0---0---0-0-0--11^----------------|
                     I cant communicate...               I swear we never..
=>Verse2<=
e |-----------------------------------|
B |-----------------------------------|
G |-----------------------------------|
D |------7c----9c----12c----14c-------|
A |------7c----9c----12c----14c-------|
D |------7c----9c----12c----14c-------|
         You will never...


=>Verse1<=
e |-----------------------------------|-----------------------------------|
B |-----------------------------------|-----------------------------------|
G |-----------------------------------|-----------------------------------|
D |-----------------------------------|-----------------------------------|
A |-0---0---0-0-0--11^----------------|-0---0---0-0-0--11^----------------|
D |-0---0---0-0-0--11^----------------|-0---0---0-0-0--11^----------------|
                     Please understand...                I can take it...
=>Verse1<=
e |-----------------------------------|-----------------------------------|
B |-----------------------------------|-----------------------------------|
G |-----------------------------------|-----------------------------------|
D |-----------------------------------|-----------------------------------|
A |-0---0---0-0-0--11^----------------|-0---0---0-0-0--11^----------------|
D |-0---0---0-0-0--11^----------------|-0---0---0-0-0--11^----------------|
                     Our time is...                      And i can see...
=>Verse2<=
e |-----------------------------------|
B |-----------------------------------|
G |-----------------------------------|
D |------7c----9c----12c----14c-------|
A |------7c----9c----12c----14c-------|
D |------7c----9c----12c----14c-------|
         I won't be there...


=>Pre Chorus<=
e |-----------------------------------|-----------------------------------|
B |-----------------------------------|-----------------------------------|
G |-----------------------------------|-----------------------------------|
D |----2~-------9999999---5555555-----|----2~-------9999999---5555555-----|
A |----2~-------9999999---5555555-----|----2~-------9999999---5555555-----|
D |----2~-------9999999---5555555-----|----2~-------9999999---5555555-----|
         You talk to me...                   I swear you'll see...


=>Interlude<= (Muted)
e |---77--99--1010--99---|---77--99--1010--99---|
B |---77--77--7-7---77---|---77--77--7-7---77---|
G |----------------------|----------------------|
D |----------------------|----------------------|
A |----------------------|----------------------|
D |----------------------|----------------------|


=>Chorus<=
e |---77--99--1010--99---|---77--99--1010--99---|
B |---77--77--7-7---77---|---77--77--7-7---77---|
G |----------------------|----------------------|
D |----------------------|----------------------|
A |----------------------|----------------------| Times 2
D |----------------------|----------------------|
      Speak up...

=>Chorus<=
e |------------7~--------|---5~-----------------|
B |---7~-----------------|----------------------|
G |----------------------|----------------------|
D |----------------------|----------------------|
A |----------------------|----------------------|
D |----------------------|----------------------|
      How do you know...

=>Chorus<=
e |---77--99--1010--99---|---77--99--1010--99---|
B |---77--77--7-7---77---|---77--77--7-7---77---|
G |----------------------|----------------------|
D |----------------------|----------------------| Times 2
A |----------------------|----------------------|
D |----------------------|----------------------|
      Speak up...
[ Tab from: http://www.guitartabs.cc/tabs/f/fightstar/speak_up_tab_ver_2.html ]
=>Chorus<=
e |----------------------|----------------------|
B |----------------------|----------------------|
G |----------------------|----------------------|
D |---11---11---11--11---|---14--14--14--14--9~-|
A |---9----9----9---9----|---12--12--12--12--9~-|
D |----------------------|-------------------9~-|
                                    Just answer..
=>Chorus<=
e |----------------------|----------------------|
B |----------------------|----------------------|
G |----------------------|----------------------|
D |---12-12-12--11-11-11-|---2~~----------------|
A |---12-12-12--11-11-11-|---2~~----------------|
D |---12-12-12--11-11-11-|---2~~----------------|


=>Verse1<=
e |-----------------------------------|-----------------------------------|
B |-----------------------------------|-----------------------------------|
G |-----------------------------------|-----------------------------------|
D |-----------------------------------|-----------------------------------|
A |-0---0---0-0-0--11^----------------|-0---0---0-0-0--11^----------------|
D |-0---0---0-0-0--11^----------------|-0---0---0-0-0--11^----------------|
                     You know i need...                  But i cant hold...
=>Verse1<=
e |-----------------------------------|-----------------------------------|
B |-----------------------------------|-----------------------------------|
G |-----------------------------------|-----------------------------------|
D |-----------------------------------|-----------------------------------|
A |-0---0---0-0-0--11^----------------|-0---0---0-0-0--11^----------------|
D |-0---0---0-0-0--11^----------------|-0---0---0-0-0--11^----------------|
                     I cant breathe in...                I swear we you...
=>Verse2<=
e |-----------------------------------|
B |-----------------------------------|
G |-----------------------------------|
D |------7c----9c----12c----14c-------|
A |------7c----9c----12c----14c-------|
D |------7c----9c----12c----14c-------|
         Fuck you all, i'll...


=>Pre Chorus<=
e |-----------------------------------|-----------------------------------|
B |-----------------------------------|-----------------------------------|
G |-----------------------------------|-----------------------------------|
D |----2~-------99999-----55555-------|----2~-------99999-----55555-------|
A |----2~-------99999-----55555-------|----2~-------99999-----55555-------|
D |----2~-------99999-----55555-------|----2~-------99999-----55555-------|
         You talk to me...                   I swear you'll see...

=>Interlude<= (Muted)
e |--7----9----10----9---|--7----9----10----9---|
B |--7----9----10----9---|--7----9----10----9---|
G |----------------------|----------------------|
D |----------------------|----------------------|
A |----------------------|----------------------|
D |----------------------|----------------------|


=>Chorus<=
e |---77--99--1010--99---|---77--99--1010--99---|
B |---77--77--7-7---77---|---77--77--7-7---77---|
G |----------------------|----------------------|
D |----------------------|----------------------|
A |----------------------|----------------------| Times 2
D |----------------------|----------------------|
      Speak up...

=>Chorus<=
e |------------7~--------|---5~-----------------|
B |---7~-----------------|----------------------|
G |----------------------|----------------------|
D |----------------------|----------------------|
A |----------------------|----------------------|
D |----------------------|----------------------|
      How do you know...

=>Chorus<=
e |---77--99--1010--99---|---77--99--1010--99---|
B |---77--77--7-7---77---|---77--77--7-7---77---|
G |----------------------|----------------------|
D |----------------------|----------------------| Times 2
A |----------------------|----------------------|
D |----------------------|----------------------|
      Speak up...

=>Chorus<=
e |----------------------|----------------------|
B |----------------------|----------------------|
G |----------------------|----------------------|
D |---11---11---11--11---|---14--14--14--14--9~-|
A |---9----9----9---9----|---12--12--12--12--9~-|
D |----------------------|-------------------9~-|
                                    Just answer..
=>Chorus<=
e |----------------------|----------------------|
B |----------------------|----------------------|
G |----------------------|----------------------|
D |---12-12-12--11-11-11-|---2~~----------------|
A |---12-12-12--11-11-11-|---2~~----------------|
D |---12-12-12--11-11-11-|---2~~----------------|


=>INTRO<= (light phaser)
e |-----------------------------------|-----------------------------------|
B |-----------------------------------|-----------------------------------|
G |-----------------------------------|-----------------------------------|
D |-----------------------------------|-----------------------------------|
A |------------------------11---------|------------------------11---------| Times 6
D |-0---0---12-0-0-11p10-0----0-0-3-2-|-0---0---12-0-0-11p10-0----0-0-3-2-|
          We started running now...           But I can't see straight...

(note) end intro the last time on:
e |-----|
B |-----|
G |-----|
D |-3-3-|
A |-3-3-|
D |-3-3-|


=>Bridge<= (THRASH)
e |-----------------------------------|-----------------------------------|
B |-----------------------------------|-----------------------------------|
G |-----------------------------------|-----------------------------------|
D |------------------------11---------|------------------------11---------|
A |-0---0---12-0-0-11p10-0-11-0-0-3-2-|-0---0---12-0-0-11p10-0-11-0-0-3-2-| Times 2
D |-0---0---12-0-0-11p10-0----0-0-3-2-|-0---0---12-0-0-11p10-0----0-0-3-2-|
          We started running now...           But I can't see straight...


=>Ending<= (THRASH)
e |-----------------------------------|-----------------------------------|
B |-----------------------------------|-----------------------------------|
G |-----------------------------------|-----------------------------------|
D |------------------------11---------|------------------------11---------|
A |-0---0---12-0-0-11p10-0-11-0-0-3-2-|-0---0---12-0-0-11p10-0-11-0-0-3-2-| Times 1
D |-0---0---12-0-0-11p10-0----0-0-3-2-|-0---0---12-0-0-11p10-0----0-0-3-2-|

=>Ending<= (THRASH)
e |-----------------------------------|--------------------------|--------|
B |-----------------------------------|--------------------------|--------|
G |-----------------------------------|--------------------------|--------|
D |------------------------11---------|-----------------------11-|--------|
A |-0---0---12-0-0-11p10-0-11-0-0-3-2-|-0---0--12-0-0-11p10-0-11-|-3333-2-| Times 1
D |-0---0---12-0-0-11p10-0----0-0-3-2-|-0---0--12-0-0-11p10-0----|-3333-2-|




***************************************************************************************



-=> 2nd Guitar Part - Alex Westaway <=-


(coming soon...)
Comments