Fightstar - Palahniuks Laughter Chords & Tabs

 

Palahniuks Laughter Chords & Tabs

Fightstar Chords & Tabs

Version: 2 Type: Tab 0 ratings
1 star 2 stars 3 stars 4 stars 5 stars
comments

Palahniuks Laughter Tab

   
Artist: FightStar
Song: Palaniuk\\\'s Laughter
Album: They Liked You Better When You Were Dead (EP)

Tabbed by: John O\\\'Nolan, Copyright 2005, All rights reserved.

Tuning: B - ( B/F#/B/E/G#/C# )




-=> 1st Guitar Part - Charlie Simpson <=-


=>INTRO<=
C#|---------------------------------|---------------------------------|
G#|---------------------------------|---------------------------------|
E |---------------------------------|---------------------------------|
B |---------------------------------|---------------------------------| times 2
F#|-0-10-0-0-10-12--3-2-0--10-11-12-|-0-10-0-0-10-12--3-2-0--12-10----| 
B |-0-10-0-0-10-12--3-2-0--10-11-12-|-0-10-0-0-10-12--3-2-0--12-10----|


=>Verse<=
C#|---------------------|
G#|---------------------|
E |------------------10-|
B |-9----11----12----10-| times 2 (strumming)
F#|-7----9-----10----10-|
B |---------------------|
   I\\\'m not in your house...


=>Pre Chorus<=                   The whole thing times 2
C#|-10---10---10---10---10---10---10---10---|-10---10---10---10---10---10---10---10---|
G#|----8----8----8----8----8----8----8----8-|----7----7----7----7----7----7----7----7-|
E |-----------------------------------------|-----------------------------------------|
B |-----------------------------------------|-----------------------------------------|
F#|-----------------------------------------|-----------------------------------------|
B |-----------------------------------------|-----------------------------------------|
   Please...                                 Don\\\'t...

C#|-12---12---12---12---12---12---12---12---|-10---10---10---10---10---10---10---10---|
G#|----8----8----8----8----8----8----8----8-|----8----8----8----8----8----8----8----8-|
E |-----------------------------------------|-----------------------------------------|
B |-----------------------------------------|-----------------------------------------|
F#|-----------------------------------------|-----------------------------------------|  
B |-----------------------------------------|-----------------------------------------|
   Help...                                   Me...


=>Chorus<=
C#|---------------------|---------------------|
G#|---------------------|---------------------|
E |---------------------|-9-----7-------------|
B |---------------------|-9-----7----10----10-| times 2 (strumming)
F#|---------------------|-7-----5----10----10-|
B |---------------------|------------10----10-|
   (and stop putting me) Down...


=>INTRO<=
C#|-------|---------------------------------|---------------------------------|
G#|-------|---------------------------------|---------------------------------|
E |-------|---------------------------------|---------------------------------|
B |-------|---------------------------------|---------------------------------| times 2
F#|-10\\\\0-|-0-10-0-0-10-12--3-2-0--10-11-12-|-0-10-0-0-10-12--5-3-0--12-10----| 
B |-10\\\\0-|-0-10-0-0-10-12--3-2-0--10-11-12-|-0-10-0-0-10-12--5-3-0--12-10----|


=>Verse<=
C#|---------------------|
G#|---------------------|
E |------------------10-|
B |-9----11----12----10-| times 2 (strumming)
F#|-7----9-----10----10-|
B |---------------------|
   I\\\'m trying not to speak...

=>Pre Chorus<=
C#|-----------------------------------------|-----------------------------------------|
G#|-----------------------------------------|-----------------------------------------|
E |---------Rest while----------------------|---------Rest while----------------------|
B |---------2nd guitar strums---------------|---------2nd guitar strums---------------|
F#|-----------------------------------------|-----------------------------------------|
B |-----------------------------------------|-----------------------------------------|
   Please...                                 Don\\\'t...

C#|-12---12---12---12---12---12---12---12---|-10---10---10---10---10---10---10---10---|
G#|----8----8----8----8----8----8----8----8-|----8----8----8----8----8----8----8----8-|
E |-----------------------------------------|-----------------------------------------|
B |-----------------------------------------|-----------------------------------------|
F#|-----------------------------------------|-----------------------------------------|
B |-----------------------------------------|-----------------------------------------|
   Help...                                   Me...


=>Chorus<=
C#|---------------------|---------------------|
G#|---------------------|---------------------|
E |---------------------|-9-----7-------------|
B |---------------------|-9-----7----10----10-| times 2 (strumming)
F#|---------------------|-7-----5----10----10-|
B |---------------------|------------10----10-|
   (and stop putting me) Down...


=>Bridge<=
C#|--------------------|
G#|--------------------|
E |--------------------|
B |-9----7----10----10-|
F#|-9----7----10----10-| times 2 (strumming)
B |-7----5----10----10-|
     oooh oooh ooh


=>Pre Chorus<=
C#|-10---10---10---10---10---10---10---10---|-10---10---10---10---10---10---10---10---|
G#|----8----8----8----8----8----8----8----8-|----7----7----7----7----7----7----7----7-|
E |-----------------------------------------|-----------------------------------------|
B |-----------------------------------------|-----------------------------------------|
F#|-----------------------------------------|-----------------------------------------|
B |-----------------------------------------|-----------------------------------------|
               If   I   sing   this   song    again...             I\\\'ll try to take my

C#|-12---12---12---12---12---12---12---12---|-10---10---10---10---10---10---10---10---|
G#|----8----8----8----8----8----8----8----8-|----8----8----8----8----8----8----8----8-|
E |-----------------------------------------|-----------------------------------------|
B |-----------------------------------------|-----------------------------------------|
F#|-----------------------------------------|-----------------------------------------|
B |-----------------------------------------|-----------------------------------------|
   Time...          I   wonder   how   fast   you...              can try

  
=>Solo<=
C#|-15---14---15---17--|-15---14---19---17--|-22---14------------|
G#|--------------------|--------------------|-----------15---17--|
E |--------------------|--------------------|--------------------|
B |--------------------|--------------------|--------------------|
F#|--------------------|--------------------|--------------------| fast picking
B |--------------------|--------------------|--------------------|


=>INTRO<=
C#|-------|---------------------------------|---------------------------------|
G#|-------|---------------------------------|---------------------------------|
E |-------|---------------------------------|---------------------------------|
B |-------|---------------------------------|---------------------------------| times 2
F#|-10\\\\0-|-0-10-0-0-10-12--3-2-0--10-11-12-|-0-10-0-0-10-12--5-3-0--12-10----| 
B |-10\\\\0-|-0-10-0-0-10-12--3-2-0--10-11-12-|-0-10-0-0-10-12--5-3-0--12-10----|


=>Ending<=
C#|---------------|
G#|---------------|
E |---------------|
B |-2~-let ring---|
F#|-2~------------|
B |-2~------------|



***************************************************************************************




-=> 2nd Guitar Part - Alex Westaway <=-

[ Tab from: http://www.guitartabs.cc/tabs/f/fightstar/palahniuks_laughter_tab_ver_2.html ]
=>INTRO<=
C#|------------------------------------|------------------------------------|
G#|------------------------------------|------------------------------------|
E |------------------------------------|------------------------------------|
B |------------------------------------|------------------------------------| times 2
F#|-0--10-12--10-12---5-3-0---10-11-12-|-0--10-12--10-12---5-3-0---12-10~---|
B |-0--10-12--10-12---5-3-0---10-11-12-|-0--10-12--10-12---5-3-0---12-10~---|


=>Verse<=
C#|---------------|-15-14------12-14---------------|-17----19----15--17--19-|
G#|---------------|-------12---------12---13-12----|------------------------|
E |---------------|-----------------------------12-|------------------------|
B |---------------|--------------------------------|------------------------|
F#|---------------|--------------------------------|------------------------|
B |---------------|--------------------------------|------------------------|
   I\\\'m not in your house...


=>Pre Chorus<=                   The whole thing times 2
C#|-----------------------------------------|-----------------------------------------|
G#|-----------------------------------------|-----------------------------------------|
E |---------Rest while----------------------|---------Rest while----------------------|
B |---------1st guitar picks----------------|---------1st guitar picks----------------|
F#|-----------------------------------------|-----------------------------------------|
B |-----------------------------------------|-----------------------------------------|
   Please...                                 Don\\\'t...

C#|-----------------------------------------|-----------------------------------------|
G#|-----------------------------------------|-----------------------------------------|
E |---------Rest while----------------------|---------Rest while----------------------|
B |---------1st guitar picks----------------|---------1st guitar picks----------------|
F#|-----------------------------------------|-----------------------------------------|  
B |-----------------------------------------|-----------------------------------------|
   Help...                                   Me...


=>Chorus<=
C#|---------------------|---------------------|
G#|---------------------|---------------------|
E |---------------------|-9-----7-------------|
B |---------------------|-9-----7----10----10-| times 2 (strumming)
F#|---------------------|-7-----5----10----10-|
B |---------------------|------------10----10-|
   (and stop putting me) Down...


=>INTRO<=
C#|------------------------------------|------------------------------------|
G#|------------------------------------|------------------------------------|
E |------------------------------------|------------------------------------|
B |------------------------------------|------------------------------------| times 2
F#|-0--10-12--10-12---5-3-0---10-11-12-|-0--10-12--10-12---5-3-0---12-10~---|
B |-0--10-12--10-12---5-3-0---10-11-12-|-0--10-12--10-12---5-3-0---12-10~---|


=>Verse<=
C#|---------------|-17----19----15--17--19--|-17----19----15--17--19-|
G#|---------------|-------------------------|------------------------|
E |---------------|-------------------------|------------------------|
B |---------------|-------------------------|------------------------|
F#|---------------|-------------------------|------------------------|
B |---------------|-------------------------|------------------------|
   I\\\'m trying not to speak


=>Pre Chorus<=                   The whole thing times 2
C#|-----------------------------------------|-----------------------------------------|
G#|-----------------------------------------|-----------------------------------------|
E |-99999-----------------------------------|-777777----------------------------------|
B |-99999-----------------------------------|-777777----------------------------------|
F#|-77777-----------------------------------|-555555----------------------------------|
B |-----------------------------------------|-----------------------------------------|
   Please...                                 Don\\\'t...

C#|-----------------------------------------|-----------------------------------------|
G#|-----------------------------------------|-----------------------------------------|
E |-----------------------------------------|-----------------------------------------|
B |-----------------------------------------|-----------------------------------------|
F#|-1010101010101010------------------------|-1010101010101010------------------------|
B |-1010101010101010------------------------|-1010101010101010------------------------|
   Help...                                   Me...


=>Chorus<=
C#|---------------------|---------------------|
G#|---------------------|---------------------|
E |---------------------|-9-----7-------------|
B |---------------------|-9-----7----10----10-| times 2 (strumming)
F#|---------------------|-7-----5----10----10-|
B |---------------------|------------10----10-|
   (and stop putting me) Down...


=>Bridge<=
C#|--------------------|
G#|--------------------|
E |--------------------|
B |-9----7----10----10-|
F#|-9----7----10----10-| times 2 (strumming)
B |-7----5----10----10-|
     oooh oooh ooh


=>Pre Chorus<=
C#|-----------------------------------------|-----------------------------------------|
G#|-----------------------------------------|-----------------------------------------|
E |---------Rest while----------------------|---------Rest while----------------------|
B |---------1st guitar picks----------------|---------1st guitar picks----------------|
F#|-----------------------------------------|-----------------------------------------|
B |-----------------------------------------|-----------------------------------------|
               If   I   sing   this   song    again...             I\\\'ll try to take my

C#|-----------------------------------------|-----------------------------------------|
G#|-----------------------------------------|-----------------------------------------|
E |---------Rest while----------------------|---------Rest while----------------------|
B |---------1st guitar picks----------------|---------1st guitar picks----------------|
F#|-----------------------------------------|-----------------------------------------|
B |-----------------------------------------|-----------------------------------------|
   Time...          I   wonder   how   fast   you...              can try


=>Solo<=
C#|--------------------|--------------------|--------------------|
G#|--------------------|--------------------|--------------------|
E |-9-----7------------|-9-----7------------|-9-----7------------|
B |-9-----7----10----10|-9-----7----10----10|-9-----7----10----10|
F#|-7-----5----10----10|-7-----5----10----10|-7-----5----10----10| fast strumming
B |------------10----10|------------10----10|------------10----10|


=>INTRO<=
C#|------------------------------------|------------------------------------|
G#|------------------------------------|------------------------------------|
E |------------------------------------|------------------------------------|
B |------------------------------------|------------------------------------| times 2
F#|-0--10-12--10-12---5-3-0---10-11-12-|-0--10-12--10-12---5-3-0---12-10~---|
B |-0--10-12--10-12---5-3-0---10-11-12-|-0--10-12--10-12---5-3-0---12-10~---|


=>Ending<=
C#|---------------|
G#|---------------|
E |---------------|
B |-2~-let ring---|
F#|-2~------------|
B |-2~------------|
Comments