Fightstar - Palahniuks Laughter Chords & Tabs

 

Palahniuks Laughter Chords & Tabs

Fightstar Chords & Tabs

Version: 1 Type: Bass Tab 0 ratings
1 star 2 stars 3 stars 4 stars 5 stars
comments

Palahniuks Laughter Bass Tab

   
   Intro
Gb|-----------------------------------------------------------------------||
Db|-----------------------------------------------------------------------||
Ab|o---------------------------------------------------------------------o||
Db|-10-0--10--0--10-----5-3-0--7-8-9----10-0-10--0--10----5-3-0--10--8b---||
  
   
Nothing till Pre-chorus
Gb|-----------------------------------------||
Db|-----------------------------------------||
Ab|-----------------------------------------||
Db|-33333333--11111111--55555555--55555555--||


   Chorus
Gb|-------------------------------------------------------------||
Db|-------------------------------------------------------------||
Ab|-------------------------------------------------------------||
Db|--7--7--7--7-----8--8--8--8-----3---3---3---3----3--3--3--3--||


Gb|-------------------------------------------------------------||
Db|-------------------------------------------------------------||
Ab|---------------------------------8--8--8--8-----7--7--7--7---||
Db|--7--7--7--7-----8--8--8--8----------------------------------||


   Bridge
Gb|------------------------------------||
Db|------------------------------------||
Ab|o----------------------------------o||
Db|--10-0--10--0--10----5-3-0--7-8-9---||



   Pre-Chorus 2
Gb|---------------------------------------------------------------------------------------------------||
Db|---------------------------------------------------------------------------------------------------||
Ab|---------------------------------------------------------------------------------------------------||
Db|--7-7-7-7-7-----5-5-5-5-5-----3--3--3--3--3--3--3--3--3--3--3----3--3--3--3--3--3--3--3--3--3--3---||


Gb|------------------------------17--17--17--17--17--17--17--17-----17--17--17--17--17--17--17--17----||
Db|--------------------------------15--15--15--15--15--15--15--15-----14--14--14--14--14--14--14--14--||
Ab|---------------------------------------------------------------------------------------------------||
Db|--7-7-7-7-7-----5-5-5-5-5--------------------------------------------------------------------------||

[ Tab from: http://www.guitartabs.cc/tabs/f/fightstar/palahniuks_laughter_btab.html ]
   Chorus
Gb|-------------------------------------------------------------||
Db|-------------------------------------------------------------||
Ab|-------------------------------------------------------------||
Db|--7--7--7--7-----8--8--8--8-----3---3---3---3----3--3--3--3--||


Gb|-------------------------------------------------------------||
Db|-------------------------------------------------------------||
Ab|---------------------------------8--8--8--8-----7--7--7--7---||
Db|--7--7--7--7-----8--8--8--8----------------------------------||


   Interlude
Gb|----------------------------------------------------------------------------------------------------------||
Db|----------------------------------------------------------------------------------------------------------||
Ab|----------------------------------------------------------------------------------------------------------||
Db|--7-7-7-7-7-----5-5-5-5-5-----3---3---3--3--3---3--3---3--3--3--3--3----3--3--3--3--3--3--3--3--3--3--3---||

Eb
Gb|-------------------------------------------------------------------------------------------------------||
Db|-------------------------------------------------------------------------------------------------------||
Ab|------------------------8--8--8--8--8--8--8--8--8--8--8--8--8---7--7--7--7--7--7--7--8--8--8--8--8--8--||
Db|--7-7-7-7-7--5-5-5-5-5---------------------------------------------------------------------------------||


   Pre-CHorus
Gb|-----------------------------------------||
Db|-----------------------------------------||
Ab|-----------------------------------------||
Db|-33333333--11111111--55555555--55555555--||

   Chorus
Gb|-------------------------------------------------------------||
Db|-------------------------------------------------------------||
Ab|-------------------------------------------------------------||
Db|--7--7--7--7-----8--8--8--8-----3---3---3---3----3--3--3--3--||


Gb|-------------------------------------------------------------||
Db|-------------------------------------------------------------||
Ab|---------------------------------8--8--8--8-----7--7--7--7---||
Db|--7--7--7--7-----8--8--8--8----------------------------------||


Outro
Gb|-----------------------------------------------------------------------||
Db|-----------------------------------------------------------------------||
Ab|o---------------------------------------------------------------------o||
Db|-10-0--10--0--10-----5-3-0--7-8-9----10-0-10--0--10----5-3-0--10--8b---||


Gb|--------||
Db|--------||
Ab|--------||
Db|---0~---||
Comments