Fightstar - Paint Your Target Chords & Tabs

 

Paint Your Target Chords & Tabs

Fightstar Chords & Tabs

Version: 3 Type: Tab 0 ratings
1 star 2 stars 3 stars 4 stars 5 stars
comments

Paint Your Target Tab

   
Artist:Fightstar
Title:Paint Your Target
Tabber:Tom Kyle
Tuning: Drop D (DADGBE)

Ive seen all kinds of tabs for this song but im pretty sure this is 99.9% 
It took me along time to tab the intro but now its perfect! ;-) enjoy

Intro
e|------------0-------------------0-----------------0---------------0---------|
B|----------------------------------------------------0---------------0-------|
G|-------11-----11---11------11-----11---11-----9---------9-----9---------9---|
D|-----9----9------9-------9----9------9------9---9-----9-----9---9-----9-----|
A|--11------------------11------------------7---------------7-----------------|
D|----------------------------------------------------------------------------|


e|------------0-------------------------------------0-------------------------|
B|----------------------------------------------------0-----------------------|
G|-------11-----11---11------11-----------------9---------9-------------------|
D|-----9----9------9-------9----9-9~----------9---9-----9---------------------|
A|--11------------------11------------------7---------------7-----------------|
D|----------------------------------------------------------------------------|

Intro part 2 guitar 1
e|-------------------------|-----|-----------|
B|-------------------------|-----|-----------|
G|-------------------------|-----|-----------|
D|--2-------11------7------|-x0~-|--x2-------|
A|--2--x32--11-x16--7-x12--|-x0~-|-----------|
D|--2-------11------7------|-x0~-|-----------|

Intro part 2 guitar 2 
e|----------------------------------------|-----|-----------|
B|----------------------------------------|-----|-----------|
G|---------8888888-----------8899---------|-----|-----------|
D|-2-------xxxxxxx--11-------xxxx--7------|-x0~-|--x2-------|
A|-2--x26--6666666--11--x12--6677--7--x12-|-x0~-|-----------|
D|-2----------------11-------------7------|-x0~-|-----------|

Verse chords guitar 1
e|----------------|
B|----------------|
G|----------------|
D|-2---11--7------|
A|-2---11--7------|
D|-2---11--7------|
[ Tab from: http://www.guitartabs.cc/tabs/f/fightstar/paint_your_target_tab_ver_3.html ]
Verse guitar 2 (play each section twice in the verse)
e|------------0-------------------0---------|--------0---------------0--------|
B|------------------------------------------|----------0---------------0------|
G|-------11-----11---11------11-----11---11-|----9---------9-----9---------9--|
D|-----9----9------9-------9----9------9----|--9---9-----9-----9---9-----9----|
A|--11------------------11------------------|7---------------7----------------|
D|------------------------------------------|---------------------------------|

Bridge guitar 1
e|------------------------------|
B|------------------------------|
G|------------------------------|
D|--222222222222222-------------|
A|--222222222222222-------------|
D|--222222222222222-------------|

Bridge guitar 2
e|---------------------------------------0---------------0-------------|
B|-----------------------------------------0---------------0-----------|
G|-111111111111111111111111111111----9---------9-----9---------9-------|
D|--x-x-x-x-x-x-x-x-x-x-x-x-x-x-x------9-----9---------9-----9---------|
A|--9-9-9-9-9-9-9-9-9-9-9-9-9-9-9--7---------------7-------------------|
D|---------------------------------------------------------------------|

Chorus guitars 1 and 2
e|-----------------------------------|--------|
B|-----------------------------------|--------|
G|-----------------------------------|--------|
D|--2-------11-------9-------7-------|--x2----|
A|--2--x16--11--x16--9--x16--7--x16--|--------|
D|--2-------11-------9-------7-------|--------|

Breakdown guitar 1
e|--------------------------------------------------------|
B|--------------------------------------------------------|
G|--------------------------------------------------------|
D|--22222222--2223/200--0000000--0003/202-----x2----------|
A|--22222222--2223/200--0000000--0003/202-----------------|
D|--22222222--2223/200--0000000--0003/202-----------------|
P.m ........  ...   ..  .......  ...   ..

Clean chord bit (strum slowly)
e|---0~----0~-----0~--|-----|
B|---0~----0~-----0~--|-----|
G|--11~----9~----11~--|--9--|
D|---9~----9~-----9~--|--9--|
A|--11~----7~----11~--|--7--|
D|--------------------|-----|

Then play the chorus and the second time through play it palm muted and end on 799 on the
(A.D.G strings)
Comments