Fightstar - Mono Chords & Tabs

 

Mono Chords & Tabs

Fightstar Chords & Tabs

Version: 5 Type: Tab

Mono Tab

   
Mono by Fightstar

This is the most epic, beautiful, explosive song.
Lots of delay and phaser and all sorts i dunno!
Tuning- Drop B- B F# B E G# C#

Intro- Verse

Intro

C#|---10--8--7--7--7----|
G#|-----0--0--0--0--0---|
E |--0---0--0--0--0--0--|
B |---------------------| x2
F#|---------------------|
B |---------------------|

C#|--------------------------------------------------------------------|
G#|---8--7--8--8--8--8--7--8--8--7------5--5--5--5--5--5--5--5--5--5---|
E |----0--0--0--0--0--0--0--0--0--0------0--0--0--0--0--0--0--0--0--0--|
B |--------------------------------------------------------------------|
F#|--7--7--7--7--7--7--7--7--7--5------3--3--3--3--3--3--3--3--3--3----|
B |--------------------------------------------------------------------|

Verse

C#|---10--8--7--7--7----|
G#|-----0--0--0--0--0---|
E |--0---0--0--0--0--0--|
B |---------------------| x2
F#|---------------------|
B |---------------------|

C#|--------------------------------------------------------------------|
G#|---8--7--8--8--8--8--7--8--8--7------5--5--5--5--5--5--5--5--5--5---|
E |----0--0--0--0--0--0--0--0--0--0------0--0--0--0--0--0--0--0--0--0--|
B |--------------------------------------------------------------------|
F#|--7--7--7--7--7--7--7--7--7--5------3--3--3--3--3--3--3--3--3--3----|
B |--------------------------------------------------------------------|

Play that continuosly til Solo 1 at 1:57
[ Tab from: http://www.guitartabs.cc/tabs/f/fightstar/mono_tab_ver_5.html ]
C#|----------------------------------------------------------------------|
G#|----------------------------------------------------------------------|
E |----------------------------------------------------------------------|
B |----------------------------------------------------------------------|
F#|-10c------12c---14c--12c-------14c-15c---10c------9c--12c--9c-----10--|c
B |----------------------------------------------------------------------|

C#|---------------------------------------------------------------------|
G#|---------------------------------------------------------------------|
E |---------------------------------------------------------------------|
B |---------------------------------------------------------------------|
F#|------12c------------------------------------------------------------|
B |---------------------------------------------------------------------|

Then it goes back into the main riff with various effects added. After the first break 
silence, To make the sound more powerful, one guitarist can play this:

C#|-----------------------|
G#|-----------------------|
E |-----------------------|
B |-----------------------|
F#|-----------------------|
B |-5c----0c----2c----10c-|

Heavy Ending:

C#|-----------------------|
G#|-----------------------|
E |-7c----2c----4c----12c-|
B |-5c----0c----2c----10c-|
F#|-5c----0c----2c----10c-|
B |-5c----0c----2c----10c-|

Solo:

C#|------------------------------------------------------------------------|
G#|-8c----10c---12c---10c---12c--13c-----8c--7c----10c--7c---8c----10c---8-|
E |------------------------------------------------------------------------|
B |------------------------------------------------------------------------|
F#|------------------------------------------------------------------------|
B |------------------------------------------------------------------------|

Right thats all ive figured out, cant do the ending bit. Obviously there isnt every 
note here, its so overdubbed itll take ages for the final tab to be posted. But for now, 
this and the songs bare basics its such an amazing song.

Any queries- alex_s_laws@hotmail.com