Fightstar - Mono Chords & Tabs

 

Mono Chords & Tabs

Fightstar Chords & Tabs

Version: 4 Type: Tab

Mono Tab

I do relise this is similar to slyo's but i need to put it up before my computer gets
wiped, then i will work on the rest.

effects - light phaser (echo possibly?)

Intro/Verse
C#||---10--8--7--7--7----|| 
G#||-----0--0--0--0--0---|| 
E ||--0---0--0--0--0--0--|| 
B ||---------------------|| (Times 2)
F#||---------------------|| 
B ||---------------------|| 


Verse
C#||----------------------------------|| 
G#||---8--7--8--8--8--8--7--8--8--7---|| 
E ||----0--0--0--0--0--0--0--0--0--0--|| 
B ||----------------------------------|| 
F#||--7--7--7--7--7--7--7--7--7--5----|| 
B ||----------------------------------|| 

C#||----------------------------------|| 
G#||---5--5--5--5--5--5--5--5--5--5---|| 
E ||----0--0--0--0--0--0--0--0--0--0--|| 
B ||----------------------------------|| 
F#||--3--3--3--3--3--3--3--3--3--3----|| 
B ||----------------------------------||

[ Tab from: http://www.guitartabs.cc/tabs/f/fightstar/mono_tab_ver_4.html ]
Chorus (all Times 2)
C#||------------------------------------------------------||
G#||----12---12---12---12---12---10---10---12---12---12---||
E ||------0----0----0----0----0----0----0----0----0----0--||
B ||------------------------------------------------------||
F#||--10---10---10---10---10---10---10---10---10---10-----||
B ||------------------------------------------------------||

C#||------------------------------------------------------||
G#||----10---10---10---10---10---12---12---12---10---10---||
E ||------0----0----0----0----0----0----0----0----0----0--||
B ||------------------------------------------------------||
F#||--10---10---10---10---10---10---10---10---10---10-----||
B ||------------------------------------------------------||

C#||-------------------------------------------------------||
G#||---8--8--8--8--8--7--7--7--8--8--7--7--7--7--7--7--7---||
E ||----0--0--0--0--0--0--0--0--0--0--0--0--0--0--0--0--0--||
B ||-------------------------------------------------------||
F#||--7--7--7--7--7--7--7--7--7--7--7--7--7--7--7--7--7----||
B ||-------------------------------------------------------||