Fightstar - Mono Chords & Tabs

 

Mono Chords & Tabs

Fightstar Chords & Tabs

Version: 3 Type: Tab

Mono Tab

-------------------------------------------------------------------------------
			     MONO - Fightstar
-------------------------------------------------------------------------------
Tabbed by: slyo
Email: sly at davidhurst dot net

I think this is a more correct tab of the intro.

Tuning: It is the same as their tuning for the song Palahniuk's Laughter, which
is (from low to high) B F# B E G# C#. This tuning is used by the band Slipknot
as a lot as well I gathered from this site.

To achieve this tuning you need tune all the strings one and a half steps down
from standard tuning, then tune the lowest string another step down.
It might sound awful because it is so low. You don't have to tune it like that
of course, however you just won't get the right sound :p
[ Tab from: http://www.guitartabs.cc/tabs/f/fightstar/mono_tab_ver_3.html ]
Also, I see some people use a phaser as effect for it... why? It's clearly done
with delay :/

As for the rest of the song, I just don't have enough time for it. Someone else
is doing it anyway I think.

C#||---10--8--7--7--7----||
G#||-----0--0--0--0--0--o||
E ||--0---0--0--0--0--0--||
B ||---------------------||
F#||--------------------o||
B ||---------------------||

C#||----------------------------------||
G#||---8--7--8--8--8--8--7--8--8--7---||
E ||----0--0--0--0--0--0--0--0--0--0--||
B ||----------------------------------||
F#||--7--7--7--7--7--7--7--7--7--5----||
B ||----------------------------------||

C#||----------------------------------||
G#||---5--5--5--5--5--5--5--5--5--5---||
E ||----0--0--0--0--0--0--0--0--0--0--||
B ||----------------------------------||
F#||--3--3--3--3--3--3--3--3--3--3----||
B ||----------------------------------||