Fightstar - Lost Like Tears In Rain Chords & Tabs

 

Lost Like Tears In Rain Chords & Tabs

Fightstar Chords & Tabs

Version: 3 Type: Tab 0 ratings
1 star 2 stars 3 stars 4 stars 5 stars
comments

Lost Like Tears In Rain Tab

   
Artist: FightStar
Song: Lost Like Tears In Rain
Album: They Liked You Better When You Were Dead (EP)

Tabbed by: John O'Nolan, Copyright 2005, All rights reserved.

Tuning: B - ( B/F#/B/E/G#/C# )

p  = pull
h  = hammer
/  = slide up
\\ = slide down
~  = let ring
c  = continueous picking/strumming
m  = half mute
x  = complete mute
^  = bend





-=> 1st Guitar Part - Charlie Simpson <=-



=>INTRO<= (Palm mute)
C#|-----------------------|
G#|-----------------------|
E |-----------------------|
B |-11c---11c-------------|
F#|--9c----9c---11c----9c-|
B |-------------11c----9c-|
    I'm not from around...

=>INTRO<= (Palm mute)
C#|-----------------------|
G#|-----------------------|
E |-----------------------|
B |-11c---11c-------------|
F#|--9c----9c----9c----9c-|
B |--------------9c----9c-|
    I'll hold on for you...


=>PREVERSE<=
C#|-----------------------------------------|-----------------------------------------|
G#|-----------------------------------------|-----------------------------------------|
E |----10h11p10h11p10p8----10h11p10h11p10p6-|--10h11p10h11p10h13-----13p11p10h11p10p8-|
B |-----------------------------------------|-----------------------------------------| Times 2
F#|-13------------------13------------------|-9-------------------11------------------|
B |-13------------------13------------------|-9-------------------11------------------|


=>BREAK<=
C#|------|
G#|------|
E |------|
B |------|
F#|--1~--|
B |--1~--|


=>VERSE<= (Phaser on first 2)
C#|-14-----14-----14-----|-13-----13-----13-----|
G#|---11-----11----------|---11-----11----------|
E |-----11-----11----11--|-----11-----11----11--|
B |----------------------|----------------------| Times 4
F#|----------------------|----------------------|
B |----------------------|----------------------|
   I can't, hold on, to this day, its all gone...


=>PRECHORUS<= (Palm Mute)
C#|----------------------|----------------------|
G#|----------------------|----------------------|
E |----------------------|----------------------|
B |----------------------|----------------------|
F#|----------------------|----------------------|
B |--13c--13c---9c--9c---|--11c--11c---9c--6c---|
   Cause I'm under, the outside, and over all...


=>CHORUS<=
C#|------------------------------|------------------------------|
G#|------------------------------|------------------------------|
E |------------------------------|------------------------------|
B |-11c--------------------------|-11c--------------------------|
F#|--9c---9c---13c----9c---11c---|--9c---9c---13c----9c---11c---|
B |-------9c---13c----9c---11c---|-------9c---13c----9c---11c---|
   Cause I'm a thousand miles away, and i'm out of oxygen...


=>PREVERSE<=
C#|-----------------------------------------|-----------------------------------------|
G#|-----------------------------------------|-----------------------------------------|
E |----10h11p10h11p10p8----10h11p10h11p10p6-|--10h11p10h11p10h13-----13p11p10h11p10p8-|
B |-----------------------------------------|-----------------------------------------|
F#|-13------------------13------------------|-9-------------------11------------------|
B |-13------------------13------------------|-9-------------------11------------------|


=>BREAK<=
C#|------|
G#|------|
E |------|
B |------|
F#|--1~--|
B |--1~--|


=>VERSE<=
C#|-14-----14-----14-----|-13-----13-----13-----|
G#|---11-----11----------|---11-----11----------|
E |-----11-----11----11--|-----11-----11----11--|
B |----------------------|----------------------| Times 4
F#|----------------------|----------------------|
B |----------------------|----------------------|
   We were, hated, it seems we, looked over...


=>PRECHORUS<= (Palm Mute)
C#|----------------------|----------------------|
G#|----------------------|----------------------|
E |----------------------|----------------------|
B |----------------------|----------------------|
F#|----------------------|----------------------|
B |--13c--13c---9c--9c---|--11c--11c---9c--6c---|
   Cause i'm under, the outside, and over all...


=>CHORUS<=
C#|------------------------------|------------------------------|
G#|------------------------------|------------------------------|
E |------------------------------|------------------------------|
B |-11c--------------------------|-11c--------------------------|
F#|--9c---9c---13c----9c---11c---|--9c---9c---13c----9c---11c---|
B |-------9c---13c----9c---11c---|-------9c---13c----9c---11c---|
   Cause I'm a thousand miles away, and i'm out of oxygen...


=>BRIDGE<=
C#|-------------------|-------------------|
G#|-------------------|-------------------|
E |-------REST--------|-------REST--------|
B |-------------------|-------------------|
F#|-------------------|-------------------|
B |-------------------|-------------------|

=>BRIDGE<=
C#|-------------------|
G#|-------------------|
E |-------------------|
B |-------------------|
F#|--1m--1m--1m-(16)--| Times 5
B |--1m--1m--1m-(16)--|
   Some things do...

=BRIDGE<=
C#|-------------------|
G#|-------------------|
E |-------------------|
B |-------------------|
F#|--1m--1m--1m-------| Times 3
B |--1m--1m--1m-------|
   Some things do...

=BRIDGE<=
C#|-------------------|-------------------|
G#|-------------------|-------------------|
E |-------------------|-------------------|
B |-------------------|--11c-11c----------|
F#|--1m--1m--1m-------|---9c--8c--13c-13c-|
B |--1m--1m--1m-------|-----------13c-13c-|
   Some things do...    Change...

=>INTERLUDE<=
C#|-----------------------------------------|-----------------------------------------|
G#|-----------------------------------------|-----------------------------------------|
E |-----------------------------------------|-----------------------------------------|
B |------------------Rest-------------------|-------------------Rest------------------|
F#|--9~-------------------------------------|-----------------------------------------|
B |--9~-------------------------------------|-----------------------------------------|


=>OUTRO<=
C#|------------------------|------------------------|
G#|------------------------|------------------------|
E |------------------------|------------------------|
B |------------------------|------------------------|
F#|--1c----8c----1c----6c--|--1c----8c----1c----6c--|
B |--1c----8c----1c----6c--|--1c----8c----1c----6c--|
   Fall.........             Lets start this...

=>OUTRO<=
C#|------------------------|------------------------|
G#|------------------------|------------------------|
E |------------------------|------------------------|
B |------------------------|------------------------|
F#|--1c----8c----1c----6c--|--4c---4c--1m1m1m1m1m1m-|
B |--1c----8c----1c----6c--|--4c---4c--1m1m1m1m1m1m-|
   Lets start this...   






***************************************************************************************





-=> 2nd Guitar Part - Alex Westaway <=-


[ Tab from: http://www.guitartabs.cc/tabs/f/fightstar/lost_like_tears_in_rain_tab_ver_3.html ]
=>INTRO<= (Palm mute)
C#|-----------------------|
G#|-----------------------|
E |---------Rest----------|
B |-----------------------|
E#|-----------------------|
B |-----------------------|
    I'm not from around...

=>INTRO<= (Palm mute)
C#|-----------------------|
G#|-----------------------|
E |---Rest----------------|
B |-----------------------|
E#|--------------9c---9c--|
B |--------------9c---9c--|
    I'll hold on for you...


=>PREVERSE<=
C#|-----------------------------------------|-----------------------------------------|
G#|-----------------------------------------|-----------------------------------------|
E |------------------Rest-------------------|------------------Rest-------------------|
B |-----------------------------------------|-----------------------------------------|
F#|-----------------------------------------|-----------------------------------------|
B |-----------------------------------------|-----------------------------------------|

C#|-----------------------------------------|-----------------------------------------|
G#|----11h12p11h12p11p9----11h12p11h12p11p7-|--11h12p11h12p11p9----11h12p11h12p11p7---|
E |-----------------------------------------|-----------------------------------------| 
B |-----------------------------------------|-----------------------------------------|
F#|-13------------------13------------------|-9-------------------11------------------|
B |-13------------------13------------------|-9-------------------11------------------|


=>BREAK<=
C#|------|
G#|------|
E |------|
B |------|
F#|--1~--|
B |--1~--|


=>VERSE<= (Phaser on first 2)
C#|----------------------|----------------------|
G#|----------------------|----------------------|
E |---------Rest---------|---------Rest---------|
B |----------------------|----------------------| Times 4
F#|----------------------|----------------------|
B |----------------------|----------------------|
   I can't, hold on, to this day, its all gone...


=>PRECHORUS<= (Palm Mute)
C#|----------------------|----------------------|
G#|----------------------|----------------------|
E |----------------------|----------------------|
B |----------------------|----------------------|
F#|----------------------|----------------------|
B |--13c--13c---9c--9c---|--11c--11c---9c--6c---|
   Cause I'm under, the outside, and over all...


=>CHORUS<=
C#|------------------------------|------------------------------|
G#|------------------------------|------------------------------|
E |------------------------------|------------------------------|
B |-11c--------------------------|-11c--------------------------|
F#|--9c---9c---13c----4c----9c---|--9c---9c---13c----4c----9c---|
B |-------9c---13c----4c----9c---|-------9c---13c----4c----9c---|
   Cause I'm a thousand miles away, and i'm out of oxygen...


=>PREVERSE<=
C#|-----------------------------------------|-----------------------------------------|
G#|----11h12p11h12p11p9----11h12p11h12p11p7-|--11h12p11h12p11p9----11h12p11h12p11p7---|
E |-----------------------------------------|-----------------------------------------| 
B |-----------------------------------------|-----------------------------------------|
F#|-13------------------13------------------|-9-------------------11------------------|
B |-13------------------13------------------|-9-------------------11------------------|


=>BREAK<=
C#|------|
G#|------|
E |------|
B |------|
F#|--1~--|
B |--1~--|


=>VERSE<=
C#|----------------------|----------------------|
G#|----------------------|----------------------|
E |---------Rest---------|---------Rest---------|
B |----------------------|----------------------| Times 4
F#|----------------------|----------------------|
B |----------------------|----------------------|
   We were, hated, it seems we, looked over...


=>PRECHORUS<= (Palm Mute)
C#|----------------------|----------------------|
G#|----------------------|----------------------|
E |----------------------|----------------------|
B |----------------------|----------------------|
F#|----------------------|----------------------|
B |--13c--13c---9c--9c---|--11c--11c---9c--6c---|
   Cause i'm under, the outside, and over all...


=>CHORUS<=
C#|------------------------------|------------------------------|
G#|------------------------------|------------------------------|
E |------------------------------|------------------------------|
B |-11c--------------------------|-11c--------------------------|
F#|--9c---9c---13c----4c----9c---|--9c---9c---13c----4c----9c---|
B |-------9c---13c----4c----9c---|-------9c---13c----4c----9c---|
   Cause I'm a thousand miles away, and i'm out of oxygen...


=>BRIDGE<=
C#|-------------------|-------------------|
G#|-------------------|-------------------|
E |--------------4^---|--------------4^---|
B |--------------4^---|--------------4^---|
F#|--1m--1m--1m-------|--1m--1m--1m-------|
B |--1m--1m--1m-------|--1m--1m--1m-------|

=>BRIDGE<=
C#|-------------------|
G#|-------------------|
E |--------------4^---|
B |--------------4^---|
F#|--1m--1m--1m-------| Times 5
B |--1m--1m--1m-------|
   Some things do...

=BRIDGE<=
C#|-------------------|
G#|-------------------|
E |-------------------|
B |-------------------|
F#|--1m--1m--1m-------| Times 3
B |--1m--1m--1m-------|
   Some things do...

=BRIDGE<=
C#|-------------------|-------------------|
G#|-------------------|-------------------|
E |-------------------|-------------------|
B |-------------------|--11c-11c----------|
F#|--1---1---1--------|---9c--8c--13c-13c-|
B |--1---1---1--------|-----------13c-13c-|
   Some things do...    Change...


=>INTERLUDE<=
C#|---11--11--11--11--11--11--10--10-|---8---8---8---8---8---8---8---8--|
G#|-11--11--11--11--11--11--11--11---|-9---9---9---9---9---9---9---9----|
E |----------------------------------|----------------------------------|
B |----------------------------------|----------------------------------|
F#|----------------------------------|----------------------------------|
B |----------------------------------|----------------------------------|


=>OUTRO<=
C#|---11--11--11--11--11--11--10--10-|---8---8---8---8---8---8---8---8--|
G#|-11--11--11--11--11--11--11--11---|-9---9---9---9---9---9---9---9----|
E |----------------------------------|----------------------------------|
B |----------------------------------|----------------------------------| Times 2
F#|----------------------------------|----------------------------------|
B |----------------------------------|----------------------------------|
   Fall.........                      Lets start this...

=>OUTRO<=
C#|--11c---10c-11c---11c---10c-9c----|--11c---10c-11c---11c---10c-9c----|
G#|----------------------------------|----------------------------------|
E |----------------------------------|----------------------------------|
B |----------------------------------|----------------------------------|
F#|----------------------------------|----------------------------------|
B |----------------------------------|----------------------------------|
   Lets start this...                 Its the end...


=>ENDING<=
C#|--9c--|
G#|------|
E |------|
B |------|
F#|------|
B |------|
Comments