Fightstar - Lost Like Tears In Rain Chords & Tabs

 

Lost Like Tears In Rain Chords & Tabs

Fightstar Chords & Tabs

Version: 1 Type: Tab 0 ratings
1 star 2 stars 3 stars 4 stars 5 stars
comments

Lost Like Tears In Rain Tab

Agan ive only got the intro  sozzy!
tabbed by: Georgio_mcmahon@hotmail.com email me for mistakes!
[ Tab from: http://www.guitartabs.cc/tabs/f/fightstar/lost_like_tears_in_rain_tab.html ]
e|---------------------------------------------------------------------------|
B|---------------------------------------------------------------------------|
G|-----------------------------8---7--8---7----------------8--7--8--7--------|
D|--9---9----11---11----11-----------------------11--11------------------6---|
A|--9---9----11---11----11---------------------------11----------------------|
D|--9---9----11---11----11---------------------------11----------------------|

e|---------------------------------------------------------------------------|
B|-----------------------6---------------------------------------------------|
G|------8---7---8---7-----------------10---8--7--8---7-----------------------|
D|-6----------------------------8-------------------------10-----------------|
A|-6----------------------------8--------------------------------------------|
D|-6----------------------------8--------------------------------------------|


MORE ON DA WAYY!!!
Comments