Fightstar - Lost Like Tears In Rain Chords & Tabs

 

Lost Like Tears In Rain Chords & Tabs

Fightstar Chords & Tabs

Version: 1 Type: Bass Tab

Lost Like Tears In Rain Bass Tab

   
This is for The EP version, "not the album version"

D tuning with a Drop C
low to high
D tuning - D/G/C/F
with drop C - C/G/C/F

/ - slide up
\ - slide down
p - pull
h - hammer
[n] - optional note
(n) - how many times note is played
~ - let ring


 INTRO
F|-----------------------------------------|
C|---------------REST-WHILE----------------|
G|--------------GUITAR-PLAYS---------------|
C|-----------------------------------------|

 PREVERSE
F|-------------------------------------------------------------------------|
C|-------------------------------------------------------------------------|
G|-------------------------------------------------------------------------| (Times 2)
C|-12-12-12-12-12-12---12-12-12-12-12-12---8-8-8-8-8-8---10-10-10-10-10-10-|


 BREAK
F|----|
C|----|
G|----|
C|-0~-|


 VERSE
F|-----------------------------------------|
C|---------------REST-WHILE----------------|
G|--------------GUITAR-PLAYS---------------| (Times 2)
C|-----------------------------------------|

F|---------------------------------|
C|---------------------------------|
G|---------------------------------| (Times 2)
C|-3-(x8)--0-(x8)--10-(x8)--8-(x8)-|


 PRECHORUS
F|-------------------------------------------------------|
C|-------------------------------------------------------|
G|-------------------------------------------------------|
C|-0-0-0-0-0-0---0-0-0-0-0-0---8-8-8-8-8-8---8-8-8-8-8-8-|

F|-------------------------------------------------------------------|
C|-------------------------------------------------------------------|
G|-------------------------------------------------------------------|
C|-10-10-10-10-10-10---10-10-10-10-10-10---8-8-8-8-8-8---5-5-5-5-5-5-|


 CHORUS
F|---------------------------------------------|
C|---------------------------------------------|
G|---------------------------------------------| (Times 2)
C|-0-(x16)--8-(x16)--0-(x16)--3-(x16)--8-(x16)-|

[ Tab from: http://www.guitartabs.cc/tabs/f/fightstar/lost_like_tears_in_rain_btab.html ]
 PREVERSE
F|-------------------------------------------------------------------------|
C|-------------------------------------------------------------------------|
G|-------------------------------------------------------------------------|
C|-12-12-12-12-12-12---12-12-12-12-12-12---8-8-8-8-8-8---10-10-10-10-10-10-|


 BREAK
F|----|
C|----|
G|----|
C|-0~-|


 VERSE
F|----------------------------------|---------------------------------|
C|----------------------------------|---------------------------------|
G|----------------------------------|---------------------------------|
C|-3-(x3)--0-(x3)--10-(x3)--8-(x3)--|-3-(x8)--0-(x8)--10-(x8)--8-(x8)-|


 PRECHORUS
F|-------------------------------------------------------|
C|-------------------------------------------------------|
G|-------------------------------------------------------|
C|-0-0-0-0-0-0---0-0-0-0-0-0---8-8-8-8-8-8---8-8-8-8-8-8-|

F|-------------------------------------------------------------------|
C|-------------------------------------------------------------------|
G|-------------------------------------------------------------------|
C|-10-10-10-10-10-10---10-10-10-10-10-10---8-8-8-8-8-8---5-5-5-5-5-5-|


 CHORUS
F|---------------------------------------------|
C|---------------------------------------------|
G|---------------------------------------------| (Times 2)
C|-0-(x16)--8-(x16)--0-(x16)--3-(x16)--8-(x16)-|


 BRIDGE
F|-------------------------------------|
C|-------------REST-WHILE--------------|
G|------------GUITAR-PLAYS-------------|
C|-------------------------------------|

F|----------|
C|----------|
G|----------| (Times 9)
C|-0-0-0----|

F|---------------------|
C|---------------------|
G|---8-(x32)-----------|
C|------------12-(x32)-|


 INTERLUDE
F|---------------------------|
C|---------------------------|
G|-7~---9\2~---0-7~---9\2~---|
C|---------------------------|


 OUTRO
F|------------------------------------|------------------------------------|
C|------------------------------------|------------------------------------|
G|------------------------------------|------------------------------------|
C|-0-(x16)--7-(x16)--0-(x16)--5-(x16)-|-0-(x16)--7-(x16)--0-(x16)--5-(x16)-|

F|------------------------------------|---------------------|
C|------------------------------------|---------------------|
G|------------------------------------|---------------------|
C|-0-(x16)--7-(x16)--0-(x16)--5-(x16)-|-3-(x16)-0-0-0-0-0-0-|