Fightstar - Hazy Eyes Chords & Tabs

 

Hazy Eyes Chords & Tabs

Fightstar Chords & Tabs

Version: 3 Type: Tab 0 ratings
1 star 2 stars 3 stars 4 stars 5 stars
comments

Hazy Eyes Tab

   
Artist: FightStar
Song: Hazy Eyes
Album: They Liked You Better When You Were Dead (EP)

Tabbed by: John O'Nolan, Copyright 2005, All rights reserved.

Tuning: drop-D - ( D/A/D/G/B/e )
Effects: none

p  = pull
h  = hammer
s  = slide
~  = let ring
c  = continueous picking/strumming
m  = half mute
x  = complete mute
^  = bend



-=> 1st Guitar Part - Charlie Simpson <=-



=>INTRO<=
e |-----------------------------------|-----------------------------------|
B |-----------------------------------|-----------------------------------|
G |-6s7--7--7-9-6-6---6s7--7--7-9-6-6-|-6s7--7--7-9-6-6---6s7--7--7-9-6-6-|
D |-----------------------------------|-----------------------------------|
A |-----------------------------------|-----------------------------------|
D |-----------------------------------|-----------------------------------|

=>INTRO<=
e |-----------------------------------|
B |---------8-7-----------------------|
G |------------7------------6-7-9~----|
D |-7--7--7---------5--5--5-----------|
A |-----------------------------------|
D |-----------------------------------|

=>INTRO<=
e |-----------------------------------|-----------------------------------|
B |-----------------------------------|-----------------------------------|
G |-6s7--7--7-9-6-6---6s7--7--7-9-6-6-|-6s7--7--7-9-6-6---6s7--7--7-9-6-6-|
D |-----------------------------------|-----------------------------------|
A |-----------------------------------|-----------------------------------|
D |-----------------------------------|-----------------------------------|

=>INTRO<=
e |-----------------------------------|
B |---------8-7-----------------------|
G |------------7------------6-7-9--2~-|
D |-7--7--7---------5--5--5--------0~-|
A |--------------------------------0~-|
D |--------------------------------0~-|



=>Verse<=
e |--------------------------|--------------------------|
B |--------------------------|--------------------------|
G |--------7-----------7-----|-------7-----------7------|
D |------7---7-------7---7---|-----7---7-------7---7----| Times 2
A |----5-------5---5-------5-|---5-------5---5-------5--|
D |--0-----------0-----------|-5-----------5------------|

=>Verse<=
e |--------------------------|--------------------------|
B |--------------------------|--------------------------|
G |--------7-----------7-----|-------7-----------7------|
D |------7---7-------7---7---|-----7---7-------7---7----| Times 2
A |----5-------5---5-------5-|---5-------5---5-------5--|
D |--0-----------0-----------|-5-----------5------------|
 1.Massage my heart with....   I wont break, I wont break
 2.This anesthetic wont work.  It just dulls me...

=>Verse<=
e |--------------------------|--------------------------|
B |------3-2h3p2-----3-2h3p2-|--------------------------|
G |--------------------------|-------7-----------7------|
D |----4-----------4---------|-----7---7-------7---7----| Times 1
A |--2-----------2-----------|---5-------5---5-------5--|
D |--------------------------|-5-----------5------------|
   I wish I knew where I....  I wish I knew where I'd....



=>Pre Chorus<=
e |-----------------------------------------------------|
B |-----------------------------------------------------|
G |-14-14-14-------11-11-11----------7c-7c-7c-7c-7c-7c--|
D |-14-14-14-------11-11-11----------5c-5c-5c-5c-5c-5c--| Times 2
A |-12-12-12-------9--9--9-----------5c-5c-5c-5c-5c-5c--|
D |-x--x--x--------x--x--x-----------5c-5c-5c-5c-5c-5c--|
   .........I dont..........need you... 


=>Chorus<=
e |-----------------------|-----------------------|
B |-----------------------|-----------------------|
G |-11c----------11c------|-9c-----------7c-------|
D |-x------------9c-------|-7c-----------5c-------|
A |-9c-----------9c-------|-7c-----------5c-------|
D |-x------------9c-------|-7c-----------5c-------|
   The lights are going..  Look at us we're fading 

=>Chorus<=
e |-----------------------|-----------------------|
B |-----------------------|-----------------------|
G |-11c----------11c----R-|-9c-----------7c-------|
D |-x------------9c-----E-|-7c-----------5c-------|
A |-9c-----------9c-----S-|-7c-----------5c-------|
D |-x------------9c-----T-|-7c-----------5c-------|
   That look across your.. Distorted crushed and.. 



=>INTRO<=
e |-----------------------------------|-----------------------------------|
B |-----------------------------------|-----------------------------------|
G |-6s7--7--7-9-6-6---6s7--7--7-9-6-6-|-6s7--7--7-9-6-6---6s7--7--7-9-6-6-|
D |-----------------------------------|-----------------------------------|
A |-----------------------------------|-----------------------------------|
D |-----------------------------------|-----------------------------------|

=>INTRO<=
e |-----------------------------------|-------|
B |---------8-7-----------------------|-------|
G |------------7------------6-7-9~----|-7-7-9~|
D |-7--7--7---------5--5--5-----------|-------|
A |-----------------------------------|-------|
D |-----------------------------------|-------|


=>Verse<=
e |--------------------------|--------------------------|
B |--------------------------|--------------------------|
G |--------7-----------7-----|-------7-----------7------|
D |------7---7-------7---7---|-----7---7-------7---7----| Times 2
A |----5-------5---5-------5-|---5-------5---5-------5--|
D |--0-----------0-----------|-5-----------5------------|
 1.You strung me up all....   I wont wait, I wont wait
 2.You drag me back but i'll  I wont fall down...

=>Verse<=
e |--------------------------|--------------------------|
B |------3-2h3p2-----3-2h3p2-|--------------------------|
G |--------------------------|-------7-----------7------|
D |----4-----------4---------|-----7---7-------7---7----| Times 1
A |--2-----------2-----------|---5-------5---5-------5--|
D |--------------------------|-5-----------5------------|
   I wish I knew where I....  I wish I knew where I'd....


=>Pre Chorus<=
e |-----------------------------------------------------|
B |-----------------------------------------------------|
G |-14-14-14-------11-11-11----------7c-7c-7c-7c-7c-7c--|
D |-14-14-14-------11-11-11----------5c-5c-5c-5c-5c-5c--| Times 2
A |-12-12-12-------9--9--9-----------5c-5c-5c-5c-5c-5c--|
D |-x--x--x--------x--x--x-----------5c-5c-5c-5c-5c-5c--|
   .........I dont..........need you... 


=>Chorus<=
e |-----------------------|-----------------------|
B |-----------------------|-----------------------|
G |-11c----------11c------|-9c-----------7c-------|
D |-x------------9c-------|-7c-----------5c-------|
A |-9c-----------9c-------|-7c-----------5c-------|
D |-x------------9c-------|-7c-----------5c-------|
   The lights are going..  Look at us we're fading 

=>Chorus<=
e |-----------------------|-----------------------|
B |-----------------------|-----------------------|
G |-11c----------11c----R-|-9c-----------7c-------|
D |-x------------9c-----E-|-7c-----------5c-------|
A |-9c-----------9c-----S-|-7c-----------5c-------|
D |-x------------9c-----T-|-7c-----------5c-------|
   That look across your.. Distorted crushed and.. 


=>Bridge<=
e |-----------------------------------|-----------------------------------------|
B |-----------------------------------|-----------------------------------------|
G |-4---4---4---4-2-2--7---7---7--7---|-14--14--14-14-12-11-14--14--14-14-12-11-|
D |-2---2---2---2-0-0--5---5---5--5---|-14--14--14-14-12-11-14--14--14-14-12-11-|
A |-2---2---2---2-0-0--5---5---5--5---|-12--12--12-12-10-9--12--12--12-12-10-9--|
D |-2---2---2---2-0-0--5---5---5--5---|-----------------------------------------|
        Just look away.....             From me...

=>Bridge<=
e |-----------------------------------|-----------------------------------------|
B |-----------------------------------|-----------------------------------------|
G |-4---4---4---4-2-2--7---7---7--7---|---14c---|---14c----|----14c---|---14c---|
D |-2---2---2---2-0-0--5---5---5--5---|---14c---|---14c----|----14c---|---14c---|
A |-2---2---2---2-0-0--5---5---5--5---|---12c---|---12c----|----12c---|---12c---|
D |-2---2---2---2-0-0--5---5---5--5---|-----------------------------------------|
        And I'll be there.....          You'll See...

=>Bridge<=
e |-----------------------------------|
B |-----------------------------------|
G |-4---4---4---4-2-2---7~~~----------|
D |-2---2---2---2-0-0---5~~~----------|
A |-2---2---2---2-0-0---5~~~----------|
D |-2---2---2---2-0-0---5~~~----------|


=>OUTRO<=
e |-----------------------------------|-----------------------------------|
B |-----------------------------------|-----------------------------------|
G |-6s7--7--7-9-6-6---6s7--7--7-9-6-6-|-6s7--7--7-9-6-6---6s7--7--7-9-6-6-|
D |-----------------------------------|-----------------------------------|
A |-----------------------------------|-----------------------------------|
D |-----------------------------------|-----------------------------------|

=>OUTRO<=
e |-----------------------------------|
B |---------8-7-----------------------|
G |------------7------------6-7-9~----|
D |-7--7--7---------5--5--5-----------|
A |-----------------------------------|
D |-----------------------------------|

=>OUTRO<=
e |-----------------------------------|-----------------------------------|
B |-----------------------------------|-----------------------------------|
G |-6s7--7--7-9-6-6---6s7--7--7-9-6-6-|-6s7--7--7-9-6-6---6s7--7--7-9-6-6-|
D |-----------------------------------|-----------------------------------|
A |-----------------------------------|-----------------------------------|
D |-----------------------------------|-----------------------------------|

=>OUTRO<=
e |-----------------------------------|
B |---------8-7-----------------------|
G |------------7------------6-7-9-----|
D |-7--7--7---------5--5--5-----------|
A |-----------------------------------|
D |-----------------------------------|

[ Tab from: http://www.guitartabs.cc/tabs/f/fightstar/hazy_eyes_tab_ver_3.html ]


*********************************************************************************






-=> 2nd Guitar Part - Alex Westaway <=-



=>INTRO<=
e |-----------------------------------|-----------------------------------|
B |-----------------------------------|-----------------------------------|
G |-6s7--7--7-9-6-6---6s7--7--7-9-6-6-|-6s7--7--7-9-6-6---6s7--7--7-9-6-6-|
D |-----------------------------------|-----------------------------------|
A |-----------------------------------|-----------------------------------|
D |-----------------------------------|-----------------------------------|

=>INTRO<=
e |-----------------------------------|
B |-----------------------------------|
G |-9--9------------7--7--------------|
D |-7--7------------5--5--------------|
A |-7--7------------5--5--------------|
D |-7--7------------5--5--------------|

=>INTRO<=
e |-----------------------------------|-----------------------------------|
B |-----------------------------------|-----------------------------------|
G |-6s7--7--7-9-6-6---6s7--7--7-9-6-6-|-6s7--7--7-9-6-6---6s7--7--7-9-6-6-|
D |-----------------------------------|-----------------------------------|
A |-----------------------------------|-----------------------------------|
D |-----------------------------------|-----------------------------------|

=>INTRO<=
e |-----------------------------------|
B |-----------------------------------|
G |-9--9------------7--7-----------2~-|
D |-7--7------------5--5-----------0~-|
A |-7--7------------5--5-----------0~-|
D |-7--7------------5--5-----------0~-|



=>Verse<=
e |--------------------------|--------------------------|
B |--------------------------|--------------------------|
G |--------REST-WHILE--------|--------REST-WHILE--------|
D |-----1ST-GUITAR-PLAYS-----|-----1ST-GUITAR-PLAYS-----| Times 2
A |--------------------------|--------------------------|
D |--------------------------|--------------------------|

=>Verse<=
e |--------------------------|--------------------------|
B |--------------------------|--------------------------|
G |--------REST-WHILE--------|--------REST-WHILE--------|
D |-----1ST-GUITAR-PLAYS-----|-----1ST-GUITAR-PLAYS-----| Times 2
A |--------------------------|--------------------------|
D |--------------------------|--------------------------|
 1.Massage my heart with....   I wont break, I wont break
 2.This anesthetic wont work.  It just dulls me...

=>Verse<=
e |--------------------------|--------------------------|
B |--------------------------|--------------------------|
G |--------REST-WHILE--------|--------REST-WHILE--------|
D |-----1ST-GUITAR-PLAYS-----|-----1ST-GUITAR-PLAYS-----| Times 2
A |--------------------------|--------------------------|
D |--------------------------|--------------------------|
   I wish I knew where I....  I wish I knew where I'd....



=>Pre Chorus<=
e |-----------------------------------------------------|
B |-----------------------------------------------------|
G |-14-14-14-------11-11-11----------7c-7c-7c-7c-7c-7c--|
D |-14-14-14-------11-11-11----------5c-5c-5c-5c-5c-5c--| Times 2
A |-12-12-12-------9--9--9-----------5c-5c-5c-5c-5c-5c--|
D |-x--x--x--------x--x--x-----------5c-5c-5c-5c-5c-5c--|
   .........I dont..........need you... 


=>Chorus<=
e |-----------------------|-----------------------|
B |-----------------------|-----------------------|
G |-14c---11c---11--------|-14c---11c---11--------|
D |-14c---11c---11-10-7---|-14c---11c---11-10-7---|
A |-12c---9c----9--10-7---|-12c---9c----9--10-7---|
D |-12c---9c----9--10-7---|-12c---9c----9--10-7---|
   The lights are going..  Look at us we're fading 

=>Chorus<=
e |-----------------------|-----------------------|
B |-----------------------|-----------------------|
G |-14c---11c---11--------|-14c---11c---11--------|
D |-14c---11c---11-10-7---|-14c---11c---11-10-7---|
A |-12c---9c----9--10-7---|-12c---9c----9--10-7---|
D |-12c---9c----9--10-7---|-12c---9c----9--10-7---|
   That look across your.. Distorted crushed and.. 


=>INTRO<=
e |-----------------------------------|-----------------------------------|
B |-----------------------------------|-----------------------------------|
G |-6s7--7--7-9-6-6---6s7--7--7-9-6-6-|-6s7--7--7-9-6-6---6s7--7--7-9-6-6-|
D |-----------------------------------|-----------------------------------|
A |-----------------------------------|-----------------------------------|
D |-----------------------------------|-----------------------------------|

=>INTRO<=
e |-----------------------------------|
B |-----------------------------------|
G |-9--9------------7--7--------------|
D |-7--7------------5--5--------------|
A |-7--7------------5--5--------------|
D |-7--7------------5--5--------------|


=>Verse<=
e |--------------------------|--------------------------|
B |--------------------------|--------------------------|
G |--------REST-WHILE--------|--------REST-WHILE--------|
D |-----1ST-GUITAR-PLAYS-----|-----1ST-GUITAR-PLAYS-----| Times 2
A |--------------------------|--------------------------|
D |--------------------------|--------------------------|

=>Verse<=
e |--------------------------|--------------------------|
B |--------------------------|--------------------------|
G |--------REST-WHILE--------|--------REST-WHILE--------|
D |-----1ST-GUITAR-PLAYS-----|-----1ST-GUITAR-PLAYS-----| Times 2
A |--------------------------|--------------------------|
D |--------------------------|--------------------------|
 1.You strung me up all....   I wont wait, I wont wait
 2.You drag me back but i'll  I wont fall down...

=>Verse<=
e |--------------------------|--------------------------|
B |--------------------------|--------------------------|
G |--------REST-WHILE--------|--------REST-WHILE--------|
D |-----1ST-GUITAR-PLAYS-----|-----1ST-GUITAR-PLAYS-----| Times 2
A |--------------------------|--------------------------|
D |--------------------------|--------------------------|
   I wish I knew where I....  I wish I knew where I'd....



=>Pre Chorus<=
e |-----------------------------------------------------|
B |-----------------------------------------------------|
G |-14-14-14-------11-11-11----------7c-7c-7c-7c-7c-7c--|
D |-14-14-14-------11-11-11----------5c-5c-5c-5c-5c-5c--| Times 2
A |-12-12-12-------9--9--9-----------5c-5c-5c-5c-5c-5c--|
D |-x--x--x--------x--x--x-----------5c-5c-5c-5c-5c-5c--|
   .........I dont..........need you... 


=>Chorus<=
e |-----------------------|-----------------------|
B |-----------------------|-----------------------|
G |-14c---11c---11--------|-14c---11c---11--------|
D |-14c---11c---11-10-7---|-14c---11c---11-10-7---|
A |-12c---9c----9--10-7---|-12c---9c----9--10-7---|
D |-12c---9c----9--10-7---|-12c---9c----9--10-7---|
   The lights are going..  Look at us we're fading 

=>Chorus<=
e |-----------------------|-----------------------|
B |-----------------------|-----------------------|
G |-14c---11c---11--------|-14c---11c---11--------|
D |-14c---11c---11-10-7---|-14c---11c---11-10-7---|
A |-12c---9c----9--10-7---|-12c---9c----9--10-7---|
D |-12c---9c----9--10-7---|-12c---9c----9--10-7---|
   That look across your.. Distorted crushed and.. 



=>Bridge<=
e |-----------------------------------|-----------------------------------------|
B |-----------------------------------|-----------------------------------------|
G |-------------REST-WHILE------------|----------------REST-WHILE---------------|
D |----------1ST-GUITAR-PLAYS---------|-------------1ST-GUITAR-PLAYS------------|
A |-----------------------------------|-----------------------------------------|
D |-----------------------------------|-----------------------------------------|
        Just look away.....             From me...

=>Bridge<=
e |-----------------------------------|-----------------------------------------|
B |-----------------------------------|-----------------------------------------|
G |-------------REST-WHILE------------|----------------REST-WHILE---------------|
D |----------1ST-GUITAR-PLAYS---------|-------------1ST-GUITAR-PLAYS------------|
A |-----------------------------------|-----------------------------------------|
D |-----------------------------------|-----------------------------------------|
        And I'll be there.....          You'll See...

=>Bridge<=
e |-----------------------------------|
B |-----------------------------------|
G |-4---4---4---4-2-2---7~~~----------|
D |-2---2---2---2-0-0---5~~~----------|
A |-2---2---2---2-0-0---5~~~----------|
D |-2---2---2---2-0-0---5~~~----------|



=>OUTRO<=
e |-----------------------------------|-----------------------------------|
B |-----------------------------------|-----------------------------------|
G |-6s7--7--7-9-6-6---6s7--7--7-9-6-6-|-6s7--7--7-9-6-6---6s7--7--7-9-6-6-|
D |-----------------------------------|-----------------------------------|
A |-----------------------------------|-----------------------------------|
D |-----------------------------------|-----------------------------------|

=>OUTRO<=
e |-----------------------------------|
B |-----------------------------------|
G |-9--9------------7--7--------------|
D |-7--7------------5--5--------------|
A |-7--7------------5--5--------------|
D |-7--7------------5--5--------------|

=>OUTRO<=
e |-----------------------------------|-----------------------------------|
B |-----------------------------------|-----------------------------------|
G |-6s7--7--7-9-6-6---6s7--7--7-9-6-6-|-6s7--7--7-9-6-6---6s7--7--7-9-6-6-|
D |-----------------------------------|-----------------------------------|
A |-----------------------------------|-----------------------------------|
D |-----------------------------------|-----------------------------------|

=>OUTRO<=
e |-----------------------------------|
B |-----------------------------------|
G |-9--9------------7--7--------------|
D |-7--7------------5--5--------------|
A |-7--7------------5--5--------------|
D |-7--7------------5--5--------------|
Comments