Fightstar - Hazy Eyes Chords & Tabs

 

Hazy Eyes Chords & Tabs

Fightstar Chords & Tabs

Version: 2 Type: Tab 0 ratings
1 star 2 stars 3 stars 4 stars 5 stars
comments

Hazy Eyes Tab

I know it's not perfect, but it's pretty spot on. so her you go.

Guitar 1, Charlie Simpson

Intro
e |-----------------|-----------------|----------|--------|
B |-----------------|-----------------|---8-7----|--------|
G |-7c-9-6-6-7c-9-6-|-7c-9-6-6-7c-9-6-|-------7--|--6-7-9-|
D |-----------------|-----------------|----------|--------|
A |-----------------|-----------------|----------|--------| times 2
D |-----------------|-----------------|----------|--------| 

e |-----|
B |-----|
G |-----|
D |--0*-|
A |--0*-|
D |--0*-|

Verse
e |--------------|--------------|
B |--------------|--------------|
G |----7-----7---|----7-----7---|
D |---7-7---7-7--|---5-5---5-5--|
A |--5---5-5---5-|--5---5-5---5-| times 4
D |-0-----0------|-5-----5------|

Verse
e |----------------|--------------|
B |----------------|--------------|
G |----11-----11---|----7-----7---|
D |---9--9---9--9--|---5-5---5-5--|
A |--9----9-9----9-|--5---5-5---5-|
D |-9------9-------|-5-----5------| times 2

Pre Chorus
e |-------------|-------|----|
B |-------------|-------|----|
G |-14-14-14-14-|-------|----|
D |-x--x--x--x--|-9-9-9-|-5c-|
A |-12-12-12-12-|-9-9-9-|-5c-| times 2
D |-------------|-9-9-9-|-5c-|

Chorus
e |----------------------|------------------------------------|
B |----------------------|------------------------------------|
G |----------------------|------------------------------------|
D |-12c---9c---7c---5c---|-12c---9-9-9-9-9-9-9------7c---5c---|
A |-12c---9c---7c---5c---|-12c---9-9-9-9-9-9-9------7c---5c---|
D |-12c---9c---7c---5c---|-12c---9-9-9-9-9-9-9------7c---5c---|

Intro
e |-----------------|-----------------|----------|--------|
B |-----------------|-----------------|---8-7----|--------|
G |-7c-9-6-6-7c-9-6-|-7c-9-6-6-7c-9-6-|-------7--|--6-7-9-|
D |-----------------|-----------------|----------|--------|
A |-----------------|-----------------|----------|--------|
D |-----------------|-----------------|----------|--------| 

e |-----|
B |-----|
G |-----|
D |--0*-|
A |--0*-|
D |--0*-|

Verse
e |--------------|--------------|
B |--------------|--------------|
G |----7-----7---|----7-----7---|
D |---7-7---7-7--|---5-5---5-5--|
A |--5---5-5---5-|--5---5-5---5-| times 4
D |-0-----0------|-5-----5------|

Verse
e |----------------|--------------|
B |----------------|--------------|
G |----11-----11---|----7-----7---|
D |---9--9---9--9--|---5-5---5-5--|
A |--9----9-9----9-|--5---5-5---5-|
D |-9------9-------|-5-----5------| times 2

Pre Chorus
e |-------------|-------|----|
B |-------------|-------|----|
G |-14-14-14-14-|-------|----|
D |-x--x--x--x--|-9-9-9-|-5c-|
A |-12-12-12-12-|-9-9-9-|-5c-| times 2
D |-------------|-9-9-9-|-5c-|

Chorus
e |----------------------|------------------------------------|
B |----------------------|------------------------------------|
G |----------------------|------------------------------------|
D |------------7c---5c---|-12c---9-9-9-9-9-9-9------7c---5c---|
A |-12c---9c---7c---5c---|-12c---9-9-9-9-9-9-9------7c---5c---|
D |------------7c---5c---|-12c---9-9-9-9-9-9-9------7c---5c---|

Break
e |-----------|---------------------------------|
B |-----------|---------------------------------|
G |-----------|---------------------------------|
D |-2c---5c---|-12-12-12-12-9-7-12-12-12-12-9-7-|
A |-2c---5c---|-12-12-12-12-9-7-12-12-12-12-9-7-|
D |-2c---5c---|-12-12-12-12-9-7-12-12-12-12-9-7-|
[ Tab from: http://www.guitartabs.cc/tabs/f/fightstar/hazy_eyes_tab_ver_2.html ]
Break
e |-----------|-------------------------------------------------------|
B |-----------|-------------------------------------------------------|
G |-----------|-------------------------------------------------------|
D |-2c---5c---|-------------------------------------------------------|
A |-2c---5c---|-12-12-12-12---12-12-12-12---12-12-12-12---12-12-12-12-|
D |-2c---5c---|-12-12-12-12---12-12-12-12---12-12-12-12---12-12-12-12-|

Prelude
e |---------------------|
B |---------------------|
G |---------------------|
D |-5-4-2*------4-5*----|
A |-5-4-2*------4-5*----|
D |-5-4-2*------4-5*----|

Intro
e |-----------------|-----------------|----------|--------|
B |-----------------|-----------------|---8-7----|--------|
G |-7c-9-6-6-7c-9-6-|-7c-9-6-6-7c-9-6-|-------7--|--6-7-9-|
D |-----------------|-----------------|----------|--------|
A |-----------------|-----------------|----------|--------| 
D |-----------------|-----------------|----------|--------| 




Intro (i'm not sure what he plays here, but this does the trick)
e |-----|----------|
B |-----|----------|
G |-----|----------|
D |-0c--|-7-7--5-5-|
A |-0c--|-7-7--5-5-| times 2
D |-0c--|-7-7--5-5-|

e |-----|
B |-----|
G |-----|
D |--0*-|
A |--0*-|
D |--0*-|

Verse
e |---------------|
B |---------------|
G |-----break-----|
D |--(1st Guitar)-|
A |---------------|
D |---------------|

Pre Chorus
e |--------------|-------|----|
B |--------------|-------|----|
G |----break-----|-------|----|
D |-(1st Guitar)-|-9-9-9-|-5c-|
A |--------------|-9-9-9-|-5c-| times 2
D |--------------|-9-9-9-|-5c-|

Chorus
e |-----------------------|-------------------------------------|
B |-----------------------|-------------------------------------|
G |-----------------------|-------------------------------------|
D |-12c---9c---12c---9c---|-12c---9-9-9-9-9-9-9------12c---9c---|
A |-12c---9c---12c---9c---|-12c---9-9-9-9-9-9-9------12c---9c---|
D |-12c---9c---12c---9c---|-12c---9-9-9-9-9-9-9------12c---9c---|

e |-----|----------|
B |-----|----------|
G |-----|----------|
D |-0c--|-7-7--5-5-|
A |-0c--|-7-7--5-5-|
D |-0c--|-7-7--5-5-|

e |-----|
B |-----|
G |-----|
D |--0*-|
A |--0*-|
D |--0*-|

e |---------------|
B |---------------|
G |-----break-----|
D |--(1st Guitar)-|
A |---------------|
D |---------------|

Pre Chorus
e |--------------|-------|----|
B |--------------|-------|----|
G |----break-----|-------|----|
D |-(1st Guitar)-|-9-9-9-|-5c-|
A |--------------|-9-9-9-|-5c-| times 2
D |--------------|-9-9-9-|-5c-|

Chorus
e |----------------------|------------------------------------|
B |----------------------|------------------------------------|
G |----------------------|------------------------------------|
D |------------7c---5c---|-12c---9-9-9-9-9-9-9------7c---5c---|
A |------------7c---5c---|-12c---9-9-9-9-9-9-9------7c---5c---|
D |------------7c---5c---|-12c---9-9-9-9-9-9-9------7c---5c---|

Break
e |-----------|--------------|
B |-----------|--------------|
G |-----------|----break-----|
D |-2c---5c---|-(1st Guitar)-|
A |-2c---5c---|--------------|
D |-2c---5c---|--------------|

Break
e |-----------|--------------|
B |-----------|--------------|
G |-----------|----break-----|
D |-2c---5c---|-(1st Guitar)-|
A |-2c---5c---|--------------|
D |-2c---5c---|--------------|

Prelude
e |---------------------|
B |---------------------|
G |---------------------|
D |-5-4-2*------4-5*----|
A |-5-4-2*------4-5*----|
D |-5-4-2*------4-5*----|

e |-----|----------|
B |-----|----------|
G |-----|----------|
D |-0c--|-7-7--5-5-|
A |-0c--|-7-7--5-5-|
D |-0c--|-7-7--5-5-|
Comments