Fightstar - Hazy Eyes Chords & Tabs

 

Hazy Eyes Chords & Tabs

Fightstar Chords & Tabs

Version: 1 Type: Bass Tab 0 ratings
1 star 2 stars 3 stars 4 stars 5 stars
comments

Hazy Eyes Bass Tab

c - continuos strumming/picking
~ - let ring
\ - slide down

Intro
G|-----------------------------------------------|
D|-----------------------------------------------|
A|-----------------------------------------------| (times 2)
D|-0c---10-0c---10-0c---10-0c---10-0-7--7--5--5--|

G|----|
D|----|
A|----|
D|-0~-|

Verse
G|-----------------------------------------------|
D|-----------------------------------------------|
A|-----------------------------------------------| (times 2)
D|-0~---0~--7-7-5~---5~---0~---0~--7-7-5~---5~---|

Verse
G|-----------------------------------------|
D|-----------------------------------------|
A|-----------------------------------------|
D|-9~---9~---5~---5~---9~---9~---5~---5~---|

Pre-Chorus
G|--------------------------------|
D|--------------------------------|
A|--12-12-12-12---9-9-9-----------|
D|-------------------------5c-----|

Chorus
G|-------------------------------------------------|
D|-------------------------------------------------|
A|--12c---9c--------------12c---9c--break----------|
D|-------------7c---5c---------------------7c---5c-|

Intro
G|-----------------------------------------------|
D|-----------------------------------------------|
A|-----------------------------------------------|
D|-0c---10-0c---10-0c---10-0c---10-0-7--7--5--5--|

G|----|
D|----|
A|----|
D|-0~-|
[ Tab from: http://www.guitartabs.cc/tabs/f/fightstar/hazy_eyes_btab.html ]
Verse
G|-----------------------------------------------|
D|-----------------------------------------------|
A|-----------------------------------------------|
D|-0~---0~--7-7-5~---5~---0~---0~--7-7-5~---5~---|

Verse
G|-----------------------------------------|
D|-----------------------------------------|
A|-----------------------------------------|
D|-9~---9~---5~---5~---9~---9~---5~---5~---|

Pre-Chorus
G|--------------------------------|
D|--------------------------------|
A|--12-12-12-12---9-9-9-----------|
D|-------------------------5c-----|

Chorus
G|-----------------------------------------------|
D|-----------------------------------------------|
A|--REST--------------12c---9c--break------------|
D|---------7c---5c-----------------------7c---5c-|

Bridge
G|-------------------------------|
D|-------------------------------|
A|--------------12-12-12-12-9-7--|
D|---2c---5c---------------------|

Bridge
G|-------------|-----|-----|-----|-----|
D|-------------|-----|-----|-----|-----|
A|-------------|-12c-|-12c-|-12c-|-12c-|
D|---2c---5c---|-----|-----|-----|-----|

Bridge
G|---------------------|
D|---------------------|
A|---------------------|
D|---5-4-2~---3-4-5~---|

Outro
G|-----------------------------------------------|
D|-----------------------------------------------|
A|-----------------------------------------------|
D|-0c---10-0c---10-0c---10-0c---10-0-7--7--5--5--|
Comments