Fight - Jbs Chords & Tabs

 

Jbs Chords & Tabs

Fight Chords & Tabs

Version: 1 Type: Tab 0 ratings
1 star 2 stars 3 stars 4 stars 5 stars
comments

Jbs Tab

The Fight - JB's

Ok, this is my second tab. Go listen to this song! I'm surprised no one has really
caught on to The Fight. Anyways, um, I pretty much got everything except the solo.
Haha, I'm not too good at solos, so if someone can figure it out for me, send it
to my e-mail (sunsetcollisions@yahoo.com) and I'll be
glad to add it to this tab and credit it to you of course! Enjoy!


Intro Riff
e------------------------------------------------------|
b--7-7-7-7h9-7---10-10-10-10h12-10---7-7-7-7h9-7-------|
g------------------------------------------------7-9-7-|
D------------------------------------------------------|
A------------------------------------------------------|
E------------------------------------------------------|

Intro Rhythym
e-------------------|
b-------------------|
g---777-------------|
D---777-555-222-555-|
A---555-555-222-555-|
E-------333-000-333-| (Repeat riff and rhythym twice)
 PM **  **  **  **


Chorus
e--------------|
b--------------|
g---7----------|
D---7--5--2--5-|
A---5--5--2--5-|
E------3--0--3-|(chords x2)

[ Tab from: http://www.guitartabs.cc/tabs/f/fight/jbs_tab.html ]
Verse 1
e------------------------|
b------------------------|
g---77----44-------------|
D---77----44----44----55-|
A---55----22----44----55-|
E---------------22----33-|(x2)

Pre-Chorus
e---------------------------|
b---------------------------|
g---------7--4---------7----|
D---2--5--7--4---2--5--7--7-|
A---2--5--5--2---2--5--5--7-|
E---0--3---------0--3-----5-|


(Chorus)


Verse 2
e------------------------|
b------------------------|
g---77----44-------------|
D---77----44----44----55-|
A---55----22----44----55-|
E---------------22----33-| (strum chords 2nd time)


(Pre-Chorus)

(Chorus)


Bridge
e---------------|
b---------------|
g---4-----------|
D---4--4--5--7--|
A---2--4--5--7--|
E------2--3--5--|(x2)


Solo (Rhythym)
e--------------|
b--------------|
g---7--4-------|
D---7--4--4--5-|
A---5--2--4--5-|
E---------2--3-|(x2)

Pre-Chorus
e---------------------------|
b---------------------------|
g---------7--4---------7----|
D---2--5--7--4---2--5--7--7-|
A---2--5--5--2---2--5--5--7-|
E---0--3---------0--3-----5-|
 PM **********    ** ** **


(Chorus)

(Intro Rhythym and Riff)
Comments