Fight - Into The Pit Chords & Tabs

 

Into The Pit Chords & Tabs

Fight Chords & Tabs

Version: 1 Type: Tab 0 ratings
1 star 2 stars 3 stars 4 stars 5 stars
comments

Into The Pit Tab

Fight
Into The Pit
War of Words
Transcribed by Mike Kimball, June 2001
[bloodmetalcontent@yahoo.com]
[geocities.com/bloodmetalcontent]

As with all guitar tablature, a mono-spaced font
(e.g. Courier or Monaco) is required to display properly...

[Note: Detune to D.]

Fig. 1
|-------------------------------------
|-------------------------------------
|-------------------------------------
|--9/10-10-10-10-10-10-9---7---9---7--
|--7/-8--8--8--8--8--8-7---5---7---5--
|-------------------------------------


Fig. 2
|-------------------------------------------------------------------
|-------------------------------------------------------------------
|-------------------------------------------------------------------
|--9-----------------------------7-9-----------------------------5--
|--7-----------------------------5-7-----------------------------3--
|----0000000000000000000000000000----0000000000000000000000000000---
[ Tab from: http://www.guitartabs.cc/tabs/f/fight/into_the_pit_tab.html ]
|-------------------------------------------------------------------
|-------------------------------------------------------------------
|-------------------------------------------------------------------
|--7-----------------------------10-9-----------------------------7-
|--5-5555555555555555555555555555-8-7-----------------------------5-
|-------------------------------------0000000000000000000000000000--


Fig. 3
|------------------------------------------------------
|------------------------------------------------------
|------------------------------------------------------
|-----------3-----------------3-----------------3------
|-----------1-----------------1-----------------1------
|--0-0000-0---0000-0-0-0000-0---0000-0-0-0000-0---0000-

|---------------------
|---------------------
|---------------------
|--10---9---7-9---9---
|---8---7---5-7---7---
|-----0---0-----------


Fig. 4
|---------------------------------------------------
|---------------------------------------------------
|---------------------------------------------------
|--------------------------------------3------------
|--2-----------------3-----------------1------------
|--0-----------------1------------------------------

|-------------------
|-------------------
|-------------------
|-----------3-------
|-----------1-------
|--0-0000-0---------

Visit MetalTabs.com for more metal tablature
Comments