Fifty Four - That Day Chords & Tabs

 

That Day Chords & Tabs

Fifty Four Chords & Tabs

Version: 1 Type: Tab 0 ratings
1 star 2 stars 3 stars 4 stars 5 stars
comments

That Day Tab

Band: Fifty Four
Song: That Day

Tabber: John Cukras
Emai: riffreaper@yahoo.com

Riff 1:
E--------------------------------------------------------------------|
B--------------------------------------------------------------------|
G--------------------------------------------------------------------|
D----------------------------2---------------------------------------|
A-666-4-6-444-6--666-4-6-444-2--666-4-6-444-6--666-4-6-444-4-3-------|
E-444---4-222-4--444---4-222-0--444---4-222-4--444---4-222-2-1 x's 4-|
[ Tab from: http://www.guitartabs.cc/tabs/f/fifty_four/that_day_tab.html ]
Riff 2:
E------------------------------------------|
B------------------------------------------|
G------------------------------------------|
D----------------2-----------------2-------|
A-66-9-11/6-66-4-2-4--66-9-11/6-66-2-------|
E-44-7-9-/4-44-2-0-2--44-7-9-/4-44-0 x's 2-|

Riff 1 x's 4

Riff 2 x's 2

Riff 3:
E-----------------------|
B-----------------------|
G-----------------------|
D-----------------------|
A-66-6--66-6-6-4--------|
E-44-4--44-4-4-2  x's 4-|

Riff 4:
E--------------------------|
B--------------------------|
G--------------------------|
D--------------------------|
A-66-6-6-6-66-6-6-4--------|
E-44-4-4-4-44-4-4-2  x's 4-|

Riff 2 x's 4

Riff 3 x's 4
Comments