Fifty Four - Come Back Chords & Tabs

 

Come Back Chords & Tabs

Fifty Four Chords & Tabs

Version: 1 Type: Tab 0 ratings
1 star 2 stars 3 stars 4 stars 5 stars
comments

Come Back Tab

Band: Fifty Four
Song: come back

tabber: John Cukras
Email: riffreaper@yahoo.com

tuning: normal
[ Tab from: http://www.guitartabs.cc/tabs/f/fifty_four/come_back_tab.html ]
riff 1:
E---------------------------------------------|
B---------------------------------------------|
G---------------------------------------------|
D---------------------------------------------|
A-5-8-7-6--5-9-6-8--5-8-7-6--11-8-9-10--------|
E-3-6-5-4--3-7-4-6--3-6-5-4--9--6-7-8-  x's 4-|

Riff 2:
E------------------------------------|
B------------------------------------|
G-2------------2------------2--------|
D-2------------2------------2--------|
A-0-3/5~-9~-7~-0-3/6~-1~-3~-0--------|
E----------------------------  x's 4-|

Riff 1 x's 4

Riff 2 x's 4

Riff 1 x's 8

Keyboard Interlude Till End.
Comments