Fifty Four - Cancelled Check Chords & Tabs

 

Cancelled Check Chords & Tabs

Fifty Four Chords & Tabs

Version: 1 Type: Tab 0 ratings
1 star 2 stars 3 stars 4 stars 5 stars
comments

Cancelled Check Tab

band: Fifty Four
song: cancelled check

tabber: John Cukras
email: riffreaper@yahoo.com

tuning: normal

riff 1:
E---------------------------------------------------|
B---------------------------------------------------|
G---------------------------------------------------|
D---------------------------------------------------|
A----------1---3----------1-5-4-6666666666666-------|
E-00-2-1-0---0---00-2-1-0-------4444444444444 x's 2-|
[ Tab from: http://www.guitartabs.cc/tabs/f/fifty_four/cancelled_check_tab.html ]
Riff 2:
E----------------------------------------------------------------------------|
B----------------------------------------------------------------------------|
G----------------------------------------------------------------------------|
D---2------------------------------------2-----------------------------------|
A-4-2--0-5-4/5/4--------666666666666---4-2--0-5-4/5/4--------6-666-6-3-3/5-5-|
E-2-0--0-3-2/3/2 x's 3--444444444444---2-0--0-3-2/3/2 x's 3--4-444-4-1-1/3-3-|
pm     .                                    .

Riff 1

Riff 2

Riff 1

Riff 3:
E----------------------------------------------------------|
B----------------------------------------------------------|
G----------------------------------------------------------|
D-3/5-555-8-7-5/7-3/5-555-8-7-5/7--------------------------|
A-1/3-333-6-5-3/5-1/3-333-6-5-3/5-66-0-6-6-33-3/5-5--------|
E---------------------------------44-0-4-4-11-1/3-3  x's 4-|
pm                                   .

Short pause

Riff 1 x's 6
Comments