Fifteen - World Starvation Chords & Tabs

 

World Starvation Chords & Tabs

Fifteen Chords & Tabs

Version: 1 Type: Bass Tab 0 ratings
1 star 2 stars 3 stars 4 stars 5 stars
comments

World Starvation Bass Tab

From:	haplo_4@hotmail.com
Sent:	14 July 1998 06:05 PM

Subject:	SUBMITTED: f/fifteen/world_starvation.btab
Submitted by:  Haplo_4@hotmail.com

Tabbed by: Don Spencer
Fifteen   World Starvation
As appears on: Buzz       first rythm     

----------------------------------------------------------------------


G: ------(C)--- ------(F)----- ------(C)------ ---(G)----------------
D: ------------ ---77-888-9-10 -10-10-88-77-66 -----99-10-10-10-11-12
A: -77-888-9-10 -88----------- --------------- 10-10-----------------
E: 8----------- -------------- --------------- ----------------------


----------------------------------------------------------------------

[ Tab from: http://www.guitartabs.cc/tabs/f/fifteen/world_starvation_btab.html ]
G: ----(C)--------- ------(F)----- ------(C)---- ------(G)-------------
D: 10-10-88-77----- ---77-888-9-10 ------------- -----99-10-10-10-11-12
A: -----------10-10 -88----------- --77-888-9-10 10-10-----------------
E: ---------------- -------------- 88----------- ----------------------


----------------------------------------------------------------------
repeat x2                 second rythm
----------------------------------------------------------------------


G: ---(C)--------- --(F)----10-8--------- 
D: -------10-8---- ----10-8-----10-9-8-7- 
A: ----10-----10-8 -88=-----------------8  repeat x4
E: 88=------------ ---------------------- 


----------------------------------------------------------------------

                         third rythm
G: --(C)----10-8--
D: -------------10 
A: -----10-8=-----  repeat x10
E: 8-8-8---------- 


----------------------------------------------------------------------
repeat first rythm, second,third,second   (lyrics only on third rythm)
----------------------------------------------------------------------

Comments