Fifteen - Jesus Chords & Tabs

 

Jesus Chords & Tabs

Fifteen Chords & Tabs

Version: 2 Type: Bass Tab 0 ratings
1 star 2 stars 3 stars 4 stars 5 stars
comments

Jesus Bass Tab

From:	haplo_4@hotmail.com
Sent:	24 July 1998 08:14 PM

Subject: f/fifteen/jesus.btab

Submitted and Tabbed by: Haplo_4@hotmail.com
fifteen  jesus   taken from: Extra Medium Kick Ball Star (17)         

-----------------------------E-Major----------------------------------


G: ------------------:
D: 2-1---------------:   ( 1  fill
A: ----4-4p2-2-0-----:       4 4  )         
E: --------------4-2-:


----------------------------------------------------------------------
[ Tab from: http://www.guitartabs.cc/tabs/f/fifteen/jesus_btab_ver_2.html ]
                                        |-----------------------|
G: --------------2------------------------------------------:
D: ----2-----2---------------2222-2222-(00)00-----0000------:  (4 6 fill)
A: 2h4---2h4---4---0000-0000------------------4444-----4444-:
E: ---------------------------------------------------------:


----------------------------------------------------------------------

G: ------------------------------------------------------
D: ------------------------------------------------------
A: ---222-0--22-44-66----222-0-464-2-0----222-0-464-2-0--
E: 22-----------------22---------------22----------------


----------------------------------------------------------------------


today's 7/24 I'm going to see 15 play for the 1st time in a long time
                  13219 Poway Rd., Elks Lodge, San Diego
Comments