Fifteen - Fation Chords & Tabs

 

Fation Chords & Tabs

Fifteen Chords & Tabs

Version: 2 Type: Bass Tab 0 ratings
1 star 2 stars 3 stars 4 stars 5 stars
comments

Fation Bass Tab

   
From:	haplo_4@hotmail.com
Sent:	27 July 1998 05:55 PM

Subject: f/fifteen/fation.btab

fifteen fation
submitted/tabbed by shaun drake Haplo_4@hotmail.com


----------------------------------------------------------------------


G: ------------------------------------------------------------:
D: ------------------------------------------------------------:
A: ----------------------------------------------------00-22-00:
E: 2-2-22-444-44-5-5555555-7777-5555-4444-4444-4444-44---------:


----------------------------------------------------------------------


G: -----------------------------------:
D: -----------------------------------:
A: ---------------------------55555555:
E: 55555555-44444444-22222222---------:


----------------------------------------------------------------------

[ Tab from: http://www.guitartabs.cc/tabs/f/fifteen/fation_btab_ver_2.html ]
G: -------------------------------------------------------------------
D: -----------------------------12-12-1212-12h14-14-1414-14h16-161616-
A: ------------------11-11-1111h--------------------------------------
E: 55555555-44444444--------------------------------------------------


----------------------------------------------------------------------


G: ----------------------------------------------------------------:
D: ------14-14p12-14-12-11-----------------------------------------:
A: 11-11h------------------14-12-11-------0h11-0h12-0h11-12-0h11h12:
E: ---------------------------------14-12--------------------------:


----------------------------------------------------------------------


I've kind of forced it into A major  A b c# d e f# g# 
someone should ask lucky dog...
Comments