Fields Of The Nephilim - Dust Chords & Tabs

 

Dust Chords & Tabs

Fields Of The Nephilim Chords & Tabs

Version: 1 Type: Bass Tab 0 ratings
1 star 2 stars 3 stars 4 stars 5 stars
comments

Dust Bass Tab

"Dust" by Fields of the Nephilim (from the album "Dawnrazor")
=============================================================

Transcribed by: oSKaR LM (oSKaR@si.upc.es)


	Bass Riff 1:

	|-------------2----|
	|--0-000-00000-00--|
	|------------------|
	|------------------|


	Bass Riff 2:

	|------------------22-----|
	|------------22222----00--|
	|--3-3-0-3-3--------------|
	|-------------------------|


	Bass Riff 3:

	|------------5-5--|
	|-0-000-00000-0---|
	|-----------------|
	|-----------------|


	Guitar Riff 1:
[ Tab from: http://www.guitartabs.cc/tabs/f/fields_of_the_nephilim/dust_btab.html ]
	|--------------------------------|	
	|---222------5---222-------------|
	|--0---0-3-0----0---0-3-0-2h3p2--|
	|--------------------------------|
	|--------------------------------|


	Guitar Riff 2:

	|---------|	
	|--5-5\9--|
	|--5-5\9--|
	|--3-3\7--|
	|---------|


	Intro: Bass Riff 1 x 4

	Bass Riff 1 x 3
	Bass Riff 1 x 3 + Bass Riff 2
	Bass Riff 1
	Bass Riff 3 + Bass Riff 1
	Bass Riff 1 x 3 + Bass Riff 2

	Chorus:

	Guitar Riff 1
	Guitar Riff 1
	Guitar Riff 1
	Guitar Riff 2

	(Sorry I can't hear what is playing the bass during the chorus)

	Keep the same riffs for the rest of the song...

	Additions and Corrections Welcome...



							oSKaR@si.upc.es
			?Querras Tu rectificar las lineas de mis Manos?

Comments