Fiction Family - War In My Blood Chords & Tabs

 

Fiction Family Chords & Tabs

Version: 1 Type: Tab 0 ratings
1 star 2 stars 3 stars 4 stars 5 stars
comments

War In My Blood Tab

   
War In My Blood - Fiction Family

(s) means Slide.
 P means Pull Off

CAPO 2

INTRO
e|--------------------------------------|
B|----1-------1--------1----------------|
G|----------0---0--0h2------------------|
D|------0h2--------------3--------------| x4
A|--3-----------------------------------|
E|--------------------------------------|

Verse 1
e|------0---------------------------------------|
B|------------1-----1----------3-----5-----3----|
G|----2---2-----2-----2------4---4-----4-----4--|
D|--3-------3-----3-----3--5-------5-----5-----5|
A|----------------------------------------------|
E|----------------------------------------------|

  Ive got a girl, She tastes like rain on my tongue

e|--------------------------------------|
B|----1-------1--------1----------------|
G|----------0---0--0h2------------------|
D|------0h2--------------3--------------| x2
A|--3-----------------------------------|
E|--------------------------------------|

Verse 2

e|---------------------------------------------------|
B|-------1---------1---------3-----5-----3-----------|
G|-----2---2-----2---2-----4---4-----4-----4---------|
D|---3-------3-3-------3-5-------5-----5-----5-------|
A|---------------------------------------------------|
E|---------------------------------------------------|

  Shes got the moon in her hips, And her eyes burn up like the sun

e|--------------------------------------|
B|----1-------1--------1----------------|
G|----------0---0--0h2------------------|
D|------0h2--------------3--------------|
A|--3-----------------------------------|
E|--------------------------------------|

e|-----------------------------------------|
B|----1------1-----------------------------|
G|----------0-0----------------------------|
D|------0h2--------------------------------|
A|--3------------3-3-2-0-------------------|
E|-----------------------------------------|

CHORUS (You can either strum the Chords or FingerPick them like Jon Foreman)

   Am       Em           F           C           F          C
e|-----------------------------------------------------------------------|
B|---1-----------0-----------1-----------1-----------1-----------1-------|
G|-----2---2-------0---0-------2---2-------0---0-------2---2-------0---0-|
D|-2-----2-----2-----2-----------3-----2-----2-----------3-----2-----2---|
A|-----------2-------------3---------3-------------3---------3-----------|
E|-----------------------1-----------------------1-----------------------|

  When Im gone from my girl, When I leave her alone,It aint nothing that
  Im running from

   G6          G6          G           G
e|----------------------------------------------------|
B|-----0-----------0-----------3-----------3----------|
G|-------0---0-------0---0-------0---0-------0---0----|
D|---0-----0-----0-----0-----3-----3-----3-----3------|
A|----------------------------------------------------|
E|-3-----------3-----------3-----------3--------------|
   F           G6          F
e|------------------------------------------------|
B|-----1-----------0------------1-----------------|
G|-------2---2-------0---0---------2---3----------|
D|---------3-----0-----0-------------3------------|
A|---3-----------------------3-------------0-2-3--|
E|-1-----------3-----------1-------------3--------|

  Theres war in my blood, Ive still got wars to be won

e|--------------------------------------------|
B|----1---------1----------1------------------|
G|-----------0-----0---0h2--------------------|
D|-------0h2-------------------3--------------| x2
A|--3-----------------------------------------|
E|--------------------------------------------|

Verse 3

e|------0---------------------------------------|
B|------------1-----1----------3-----5-----3----|
G|----2---2-----2-----2------4---4-----4-----4--|
D|--3-------3-----3-----3--5-------5-----5-----5|
A|----------------------------------------------|
E|----------------------------------------------|

  My Babys soft and sweet, Somewhere between a flower and a gun


e|----------------------------------------|
B|----1---------1--------1----------------|
G|-----------0-----0-0h2------------------|
D|-------0h2---------------3--------------| x2
A|--3-------------------------------------|
E|----------------------------------------|

Verse 4

e|-------0-------------------------------------------|
B|-----------------1---------3-----5-----6(s)5-------|
G|-----2---2-----2---2-----4---4-----4---------------|
D|---3-------3-3-------3-5-------5-----5-------------|
A|---------------------------------------------------|
E|---------------------------------------------------|
  And where my girl is now, Someday thats where I want to be from

e|-------------------------------------|
B|----1-------1-------1----------------|
G|----------0---0-0h2------------------|
D|------0h2-------------3--------------|
A|--3----------------------------------|
E|-------------------------------------|

e|-----------------------------------------|
B|----1------1-----------------------------|
G|----------0-0----------------------------|
D|------0h2--------------------------------|
A|--3------------3-3-2-0-------------------|
E|-----------------------------------------|

Chorus

[ Tab from: http://www.guitartabs.cc/tabs/f/fiction_family/war_in_my_blood_tab.html ]
   Am       Em           F           C           F          C
e|-----------------------------------------------------------------------|
B|---1-----------0-----------1-----------1-----------1-----------1-------|
G|-----2---2-------0---0-------2---2-------0---0-------2---2-------0---0-|
D|-2-----2-----2-----2-----------3-----2-----2-----------3-----2-----2---|
A|-----------2-------------3---------3-------------3---------3-----------|
E|-----------------------1-----------------------1-----------------------|
But love is a dollar thats already spent,Love is a song thats been sung

   G6          G6          G           G
e|----------------------------------------------------|
B|-----0-----------0-----------3-------3(s)5-3-1p0----|
G|-------0---0-------0---0-------0---0----------------|
D|---0-----0-----0-----0-----3-----3---3(s)5-3-1p0----|
A|----------------------------------------------------|
E|-3-----------3-----------3--------------------------|

   F           G6          F
e|------------------------------------------------|
B|-----1-----------0------------1-----------------|
G|-------2---2-------0---0---------2---3----------|
D|---------3-----0-----0-------------3------------|
A|---3-----------------------3-------------0-2-3--|
E|-1-----------3-----------1-------------3--------|
 Theres war in my blood, Love aint the tune in my lungs

e|--------------------------------------------|
B|----1---------1----------1------------------|
G|-----------0-----0---0h2--------------------|
D|-------0h2-------------------3--------------|
A|--3-----------------------------------------|
E|--------------------------------------------|

e|--------------------------------------------|
B|----1------1--------------------------------|
G|----------0-0-------------------------------|
D|------0h2-----------------------------------|
A|--3------------3-3-2------------------------|
E|---------------------0----------------------|

Bridge

 E                    F     C                    Am E
   So heres my consolation,   An opponent is enough,  It takes two to go to
 F           G6     0-2-3 (on the A string)
war,And only one to fall in love.

e|-------------------------------------|
B|----1-------1-------1----------------|
G|----------0---0-0h2------------------| x2
D|------0h2-------------3--------------|
A|--3----------------------------------|
E|-------------------------------------|

Verse 5

e|------0---------------------------------------|
B|------------1-----1----------3-----5-----3----|
G|----2---2-----2-----2------4---4-----4-----4--|
D|--3-------3-----3-----3--5-------5-----5-----5|
A|----------------------------------------------|
E|----------------------------------------------|
I had a girl,I know precisely what made her run

e|-------------------------------------|
B|----1-------1-------1----------------|
G|----------0---0-0h2------------------| x2
D|------0h2-------------3--------------|
A|--3----------------------------------|
E|-------------------------------------|

e|-------0-------------------------------------------|
B|-----------------1---------3-----5-----3-----------|
G|-----2---2-----2---2-----4---4-----4-----4---------|
D|---3-------3-3-------3-5-------5-----5-----5-------|
A|---------------------------------------------------|
E|---------------------------------------------------|
Her skin looked like the sky, Made my heart beat itself like a drum

e|-------------------------------------|
B|----1-------1-------1----------------|
G|----------0---0-0h2------------------|
D|------0h2-------------3--------------|
A|--3----------------------------------|
E|-------------------------------------|

e|-----------------------------------------|
B|----1------1-----------------------------|
G|----------0-0----------------------------|
D|------0h2--------------------------------|
A|--3------------3-3-2-0-------------------|
E|-----------------------------------------|

Chorus


Am            Em           F              C        F                       C
I long for my girl, When I meet her in my dreams, I tell her  shell always be
         Em  E              F         G6    F                     G6  0-2-3
my only one,    But theres war in my blood, There  aint a thing love could

have done.

e|-------------------------------------|
B|----1-------1-------1----------------|
G|----------0---0-0h2------------------|
D|------0h2-------------3--------------|
A|--3----------------------------------|
E|-------------------------------------|

e|------------------0---------------------|
B|----1-------1-----1---------------------|
G|----------0---0---0---------------------|
D|------0h2-------2-2---------------------|
A|--3---------------3---------------------|
E|----------------------------------------|
         F         G6             F         G6             F        G6
Theres  war in my blood, Theres  war in my blood, Theres  war in my blood
         F        G6    0-2-3
Theres  war in my blood.

e|--------------------------------------------|
B|----1---------1----------1------------------|
G|-----------0-----0---0h2--------------------|
D|-------0h2-------------------3--------------|
A|--3-----------------------------------------|
E|--------------------------------------------|

e|----------------0-------------------------|
B|----1------1----1-------------------------|
G|----------0-0---0-------------------------|
D|------0h2-----2-2-------------------------|
A|--3-------------3-------------------------|
E|------------------------------------------|


This is my interpretation of Fiction Family's Song "War in My blood"

Heres the video i used http://www.youtube.com/watch?v=rIoS3jbyb28

 heres the song to get the idea of how the rythm goes

http://www.youtube.com/watch?v=S_OOJ7SvhyQ

And the lyrics thanks to www.landofbrokenhearts.org

http://landofbrokenhearts.org/switchfoot/fiction-family/fiction-
family-album-lyrics/fiction-family/
Comments