Fernando Sor - Waltz Chords & Tabs

 

Waltz Chords & Tabs

Fernando Sor Chords & Tabs

Version: 1 Type: Tab

Waltz Tab

   
-----------------------------------------------------------------------------
			     Waltz - Fernando Sor
-----------------------------------------------------------------------------
Tabbed by: Travis Wong
Email: travis_wong@hotmail.com

Tuning: EADGBe

e|-10---------7--|-3---------3--|-2-------3p2---0---2--|-3--5--6--7--8--9---|
B|----0----------|----0------0--|---1---------------1--|-0------------------|
G|-0-------------|-0------------|-2--------------------|-0------------------|
D|--------0---0--|--------0--0--|-----------0-------0--|--------------------|
A|---------------|--------------|----------------------|--------------------|
E|---------------|--------------|----------------------|--------------------|

e|-10---------7--|--3--------3--|-2-------3p2---0---2--|-3------------------|
B|----0----------|-----0-----0--|---1---------------1--|---0----------------|
G|--0------------|--0--------0--|-2--------------------|-0-------0---------.|
D|--------0---0--|--------0--0--|-----------0-------0--|-----0-------------.|
A|---------------|--------------|----------------------|--------------------|
E|---------------|--------------|----------------------|-------------3------|
[ Tab from: http://www.guitartabs.cc/tabs/f/fernando_sor/waltz_tab.html ]
e|-2----------3--|--4--------5--|--0----9----9---------|--10-----------5----|
B|-3----------5--|--6--------7--|--8----8----8---------|--7------------7----|
G|---------------|--------------|----------------------|--------------------|
D|-0------0------|--0-----0-----|----------------------|--0-----0-----------|
A|---------------|--------------|--0-------------------|--------------------|
E|---------------|--------------|----------------------|--------------------|

e|--5----7p5--4---5--|--5----7p5---4---5--|--0---9---9--|--10---------------|
B|--7------7--6---7--|--7------7---6---7--|--8---8---8--|--7----------------|
G|-------------------|--------------------|-------------|------------------.|
D|--0----------------|--0-----------------|-------------|--0---------------.|
A|-------------------|--------------------|--0---0---0--|-------------------|
E|-------------------|--------------------|-------------|-------------------|

e|--------------|---------------|-----------------|-------------------------|
B|--3--------3--|--3---------0--|--1---3-1-0---1--|-------------------------|
G|--4---4-------|--4---------0--|--2-----------2--|--2----------------------|
D|------5-------|------0--------|------0----------|--4----0---4-------------|
A|--------------|---------------|-----------------|-------------------------|
E|--------------|---------------|-----------------|-------------------------|

e|--------------|----0-------------0--|--2---3p2--0--2--|--3----------------|
B|--0---1---3---|--------3p1---0---1--|--------1-----1--|--0----------------|
G|--0---0---0---|----0----------------|--------2-----2--|--0---------------.|
D|--------------|---------------------|--0--------------|------------------.|
A|------0---2---|--3------------------|-----------------|-------------------|
E|--3-----------|---------------------|-----------------|--3----------------|

| /  slide up
| \  slide down
| h  hammer-on
| p  pull-off
| ~  vibrato
| +  harmonic
| x  Mute note
=============================================================================