Fernando Sor - Opus 35 Chords & Tabs

 

Opus 35 Chords & Tabs

Fernando Sor Chords & Tabs

Version: 2 Type: Tab 0 ratings
1 star 2 stars 3 stars 4 stars 5 stars
comments

Opus 35 Tab

   
this is a classic compositition and i lite it very much.
Standard Tuning - E A D G B E
Composer="Fernando Sor"
                                  Opus35, No. 9
                                  "Fernando Sor"

|--------------------0------------|--------------------0------------|
|-------------2-------------2-----|-------------0-------------0-----|
|------2--------------------------|------1--------------------------|
|---------------------------------|---------------------------------|
|---------------------------------|---------------------------------|
|---------------------------------|---------------------------------|


|---------------------------------|---------------------------------|
|--------------------3------------|--------------------2------------|
|-------------2-------------2-----|-------------2-------------2-----|
|------4--------------------------|------2--------------------------|
|---------------------------------|---------------------------------|
|---------------------------------|---------------------------------|


|--------------------2------------|--------------------0------------|
|---------------------------------|---------------------------------|
|-------------2-------------2-----|-------------2-------------2-----|
|------0--------------------------|---------------------------------|
|---------------------------------|------4--------------------------|
|---------------------------------|---------------------------------|


|--------------------0------------|---------------------------------|
|---------------------------3-----|--------------------2------------|
|-------------1-------------------|-------------2-------------2-----|
|---------------------------------|---------------------------------|
|------2--------------------------|------0--------------------------|
|---------------------------------|---------------------------------|


|---------------------------------|---------------------------------|
|--------------------0------------|--------------------2------------|
|-------------1-------------1-----|-------------2-------------2-----|
|---------------------------------|---------------------------------|
|---------------------------------|------0--------------------------|
|------0--------------------------|---------------------------------|


|---------------------------------|--------------------0------------|
|--------------------4------------|---------------------------------|
|-------------2-------------2-----|-------------1-------------1-----|
|---------------------------------|---------------------------------|
|------2--------------------------|------4--------------------------|
|---------------------------------|---------------------------------|


|--------------------0------------|---------------------------------|
|---------------------------2-----|---------------------------4-----|
|---------------------------------|-------------2-------------------|
|-------------4-------------------|--------------------4------------|
|------0--------------------------|------2--------------------------|
|---------------------------------|---------------------------------|


|-------------0-------------------|---------------------------0-----|
|---------------------------0-----|--------------------0------------|
|--------------------1------------|-------------1-------------------|
|---------------------------------|------2--------------------------|
|---------------------------------|---------------------------------|
|------0--------------------------|---------------------------------|


|--------------------0------------|--------------------0------------|
|-------------2-------------2-----|-------------0-------------0-----|
|------2--------------------------|------1--------------------------|
|---------------------------------|---------------------------------|
|---------------------------------|---------------------------------|
|---------------------------------|---------------------------------|


|---------------------------------|---------------------------------|
|--------------------3------------|--------------------2------------|
|-------------2-------------2-----|-------------2-------------2-----|
|------4--------------------------|------2--------------------------|
|---------------------------------|---------------------------------|
|---------------------------------|---------------------------------|


|--------------------2------------|--------------------0------------|
|---------------------------------|---------------------------------|
|-------------2-------------2-----|-------------2-------------2-----|
|------0--------------------------|---------------------------------|
|---------------------------------|------4--------------------------|
|---------------------------------|---------------------------------|


|--------------------4------------|--------------------5------------|
|-------------3-------------3-----|-------------2-------------2-----|
|---------------------------------|---------------------------------|
|---------------------------------|---------------------------------|
|------2--------------------------|------0--------------------------|
|---------------------------------|---------------------------------|


|---------------------------------|---------------------------------|
|--------------------3------------|--------------------0------------|
|-------------4-------------4-----|-------------1-------------1-----|
|------0--------------------------|------2--------------------------|
|---------------------------------|---------------------------------|
|---------------------------------|---------------------------------|


|---------------------------------|--------------------------|
|-------------2-------------------|--------------------------|
|------2--------------------2-----|--------------------------|
|--------------------2------------|--------------------------|
|---------------------------------|-------------0------------|
|---------------------------------|--------------------------|


|---------------------------------|---------------------------------|
|--------------------0------------|--------------------0------------|
|-------------1-------------1-----|-------------1-------------1-----|
|---------------------------------|------2--------------------------|
|---------------------------------|---------------------------------|
|------0--------------------------|---------------------------------|


|---------------------------------|--------------------0------------|
|--------------------2------------|-------------2-------------2-----|
|-------------2-------------2-----|---------------------------------|
|---------------------------------|------2--------------------------|
|---------------------------------|---------------------------------|
|------0--------------------------|---------------------------------|


|---------------------------------|---------------------------------|
|--------------------3------------|--------------------2------------|
|-------------4-------------4-----|-------------2-------------2-----|
|---------------------------------|------2--------------------------|
|---------------------------------|---------------------------------|
|------0--------------------------|---------------------------------|


|---------------------------------|---------------------------------|
|--------------------2------------|--------------------0------------|
|-------------2-------------2-----|-------------1-------------1-----|
|---------------------------------|------2--------------------------|
|---------------------------------|---------------------------------|
|------0--------------------------|---------------------------------|


|---------------------------------|---------------------------------|
|--------------------0------------|--------------------0------------|
|-------------1-------------1-----|-------------1-------------1-----|
|---------------------------------|------2--------------------------|
|---------------------------------|---------------------------------|
|------0--------------------------|---------------------------------|


|---------------------------------|--------------------0------------|
|--------------------2------------|-------------2-------------2-----|
|-------------2-------------2-----|---------------------------------|
|---------------------------------|------2--------------------------|
|---------------------------------|---------------------------------|
|------0--------------------------|---------------------------------|


|---------------------------------|---------------------------------|
|--------------------3------------|--------------------2------------|
|-------------4-------------4-----|-------------2-------------2-----|
|---------------------------------|------2--------------------------|
|---------------------------------|---------------------------------|
|------0--------------------------|---------------------------------|


|---------------------------------|---------------------------0-----|
|--------------------0------------|--------------------0------------|
|-------------1-------------1-----|-------------1-------------------|
|---------------------------------|------2--------------------------|
|---------------------------------|---------------------------------|
|------0--------------------------|---------------------------------|

[ Tab from: http://www.guitartabs.cc/tabs/f/fernando_sor/opus_35_tab_ver_2.html ]
|---------------------------------|---------------------------------|
|--------------------2------------|--------------------3------------|
|-------------2-------------2-----|-------------2-------------2-----|
|---------------------------------|---------------------------------|
|------0--------------------------|------2--------------------------|
|---------------------------------|---------------------------------|


|--------------------0------------|--------------------1------------|
|---------------------------------|---------------------------------|
|-------------2-------------2-----|-------------2-------------2-----|
|---------------------------------|---------------------------------|
|------4--------------------------|------4--------------------------|
|---------------------------------|---------------------------------|


|--------------------2------------|--------------------0------------|
|---------------------------------|---------------------------------|
|-------------2-------------2-----|-------------3-------------3-----|
|------0--------------------------|---------------------------------|
|---------------------------------|------4--------------------------|
|---------------------------------|---------------------------------|


|---------------------------------|--------------------2------------|
|--------------------4------------|---------------------------------|
|-------------4-------------4-----|-------------2-------------2-----|
|---------------------------------|------1--------------------------|
|------2--------------------------|---------------------------------|
|---------------------------------|---------------------------------|


|--------------------0------------|---------------------------------|
|---------------------------------|--------------------3------------|
|-------------1-------------1-----|-------------1-------------1-----|
|---------------------------------|------2--------------------------|
|------2--------------------------|---------------------------------|
|---------------------------------|---------------------------------|


|---------------------------------|---------------------------------|
|--------------------2------------|--------------------2------------|
|-------------1-------------1-----|-------------2-------------2-----|
|------3--------------------------|------4--------------------------|
|---------------------------------|---------------------------------|
|---------------------------------|---------------------------------|


|---------------------------------|---------------------------------|
|--------------------0------------|--------------------0------------|
|-------------2-------------2-----|-------------2-------------2-----|
|------0--------------------------|------1--------------------------|
|---------------------------------|---------------------------------|
|---------------------------------|---------------------------------|


|---------------------------------|------0--------------------------|
|--------------------0------------|-------------0-------------0-----|
|-------------1-------------1-----|--------------------1------------|
|------2--------------------------|---------------------------------|
|---------------------------------|---------------------------------|
|---------------------------------|---------------------------------|


|--------------------0------------|--------------------0------------|
|-------------2-------------2-----|-------------0-------------0-----|
|------2--------------------------|------1--------------------------|
|---------------------------------|---------------------------------|
|---------------------------------|---------------------------------|
|---------------------------------|---------------------------------|


|---------------------------------|---------------------------------|
|--------------------3------------|--------------------2------------|
|-------------2-------------2-----|-------------2-------------2-----|
|------4--------------------------|------2--------------------------|
|---------------------------------|---------------------------------|
|---------------------------------|---------------------------------|


|--------------------2------------|--------------------0------------|
|---------------------------------|---------------------------------|
|-------------2-------------2-----|-------------2-------------2-----|
|------0--------------------------|---------------------------------|
|---------------------------------|------4--------------------------|
|---------------------------------|---------------------------------|


|--------------------0------------|---------------------------------|
|---------------------------3-----|--------------------2------------|
|-------------1-------------------|-------------2-------------2-----|
|---------------------------------|---------------------------------|
|------2--------------------------|------0--------------------------|
|---------------------------------|---------------------------------|


|---------------------------------|---------------------------------|
|--------------------0------------|--------------------2------------|
|-------------1-------------1-----|-------------2-------------2-----|
|------2--------------------------|---------------------------------|
|---------------------------------|------0--------------------------|
|---------------------------------|---------------------------------|


|---------------------------------|---------------------------------|
|--------------------3------------|--------------------0------------|
|---------------------------------|-------------1-------------1-----|
|-------------4-------------4-----|---------------------------------|
|------2--------------------------|---------------------------------|
|---------------------------------|------0--------------------------|


|---------------------------------|--------------------0------------|
|--------------------2------------|---------------------------3-----|
|-------------2-------------2-----|-------------4-------------------|
|---------------------------------|------0--------------------------|
|------0--------------------------|---------------------------------|
|---------------------------------|---------------------------------|


|---------------------------------|--------------------0------------|
|--------------------2------------|-------------0-------------0-----|
|-------------2-------------2-----|------1--------------------------|
|------2--------------------------|---------------------------------|
|---------------------------------|---------------------------------|
|---------------------------------|---------------------------------|


|--------------------0------------|--------------------0------------|
|-------------2-------------2-----|-------------0-------------0-----|
|------2--------------------------|------1--------------------------|
|---------------------------------|---------------------------------|
|---------------------------------|---------------------------------|
|---------------------------------|---------------------------------|


|--------------------5------------|--------------------4------------|
|---------------------------------|---------------------------------|
|-------------2-------------2-----|-------------2-------------2-----|
|------4--------------------------|------2--------------------------|
|---------------------------------|---------------------------------|
|---------------------------------|---------------------------------|


|--------------------2------------|--------------------0------------|
|---------------------------------|---------------------------------|
|-------------2-------------2-----|-------------2-------------2-----|
|------0--------------------------|---------------------------------|
|---------------------------------|------4--------------------------|
|---------------------------------|---------------------------------|


|--------------------0------------|---------------------------------|
|---------------------------3-----|-------------2-------------------|
|-------------1-------------------|---------------------------2-----|
|---------------------------------|--------------------2------------|
|------2--------------------------|------0--------------------------|
|---------------------------------|---------------------------------|


|---------------------------------|--------------------2------------|
|--------------------0------------|---------------------------------|
|-------------2-------------2-----|-------------1-------------1-----|
|------1--------------------------|------0--------------------------|
|---------------------------------|---------------------------------|
|---------------------------------|---------------------------------|


|--------------------0------------|---------------------------------|
|---------------------------------|--------------------3------------|
|-------------2-------------2-----|-------------4-------------4-----|
|---------------------------------|------0--------------------------|
|------4--------------------------|---------------------------------|
|---------------------------------|---------------------------------|


|---------------------------------|---------------------------------|
|--------------------2------------|--------------------0------------|
|-------------2-------------2-----|-------------1-------------1-----|
|------2--------------------------|---------------------------------|
|---------------------------------|---------------------------------|
|---------------------------------|------0--------------------------|


|---------------------------------|--------------------------|
|---------------------------------|--------------------------|
|-------------2-------------------|--------------------------|
|--------------------2------------|--------------------------|
|------0--------------------4-----|-------------0------------|
|---------------------------------|--------------------------|

    *********************************************************
   Mohsin ,m_mohsin18@yahoo.com
    *********************************************************
Comments