Feria - Downslide Chords & Tabs

 

Downslide Chords & Tabs

Feria Chords & Tabs

Version: 1 Type: Tab 0 ratings
1 star 2 stars 3 stars 4 stars 5 stars
comments

Downslide Tab

HI my names hunter.
This is something i made up in my spare time.
My email is Feria627@aol.com if you have any questions.
Have fun!

e:-------------------------------------------------------------:
B:-------------------------------------------------------------:
G:-----4-4-4-4-4-4-4-------------------------------------------:
D:-----4-4-4-4-4-4-4--2-2-2-2-2-2-2--6-6-6-6-6-6-6--4-4-4-4-4--:
A:-----2-2-2-2-2-2-2--2-2-2-2-2-2-2--6-6-6-6-6-6-6--4-4-4-4-4--:
E:--------------------0-0-0-0-0-0-0--4-4-4-4-4-4-4--2-2-2-2-2--:

e:-------------------------------------------------------------:
B:-------------------------------------------------------------:
G:-------------------------------------------------------------:
D:-----2-2-2-2-2-2-2---5-7--9-9-9--7-7-7--5-5-5-5-5-5----------:
A:-----2-2-2-2-2-2-2---5-7--9-9-9--7-7-7--5-5-5-5-5-5----------:
E:-----0-0-0-0-0-0-0---3-5--7-7-7--5-5-5--3-3-3-3-3-3----------:

e:-------------------------------------------------------------:
B:-------------------------------------------------------------:
G:-------------------------------------------------------------:
D:-----5-7--9-9-9--7-7-7--5-5-5-5-5-5-5--3-3-3-4-4-4-5-5-5-5-5-:
A:-----5-7--9-9-9--7-7-7--5-5-5-5-5-5-5--3-3-3-4-4-4-5-5-5-5-5-:
E:-----3-5--7-7-7--5-5-5--3-3-3-3-3-3-3--1-1-1-2-2-2-3-3-3-3-3-:

e:-------------------------------------------------------------:
B:-------------------------------------------------------------:
G:-------------------------------------------------------------:
D:-------------------------------------------------------------:
A:-------------------------------------------------------------:
E:-----555-333-11111--555-333-11111-777-555-33-111111----------:
[ Tab from: http://www.guitartabs.cc/tabs/f/feria/downslide_tab.html ]
e:-------------------------------------------------------------:
B:-------------------------------------------------------------:
G:-------------------------------------------------------------:
D:-------------------------------5-5-5-7-7-7-9-9-9-x-9-9-------:
A:-------------------------------5-5-5-7-7-7-9-9-9-x-9-9-------:
E:-----777-555-88-77-55-3333333--3-3-3-5-5-5-7-7-7-x-7-7-------:

e:-------------------------------------------------------------:
B:-------------------------------------------------------------:
G:-------------------------------------------------------------:
D:-----5-5-5-7-7-7-9-9-9-x-9-9---5-5-5-3-3-3-7-7-5-5-5-5-5-----:
A:-----5-5-5-7-7-7-9-9-9-x-9-9---5-5-5-3-3-3-7-7-5-5-5-5-5-----:
E:-----3-3-3-5-5-5-7-7-7-x-7-7---3-3-3-1-1-1-5-5-3-3-3-3-3-----:

e:-------------------------------------------------------------:
B:-------------------------------------------------------------:
G:-------------------------------------------------------------:
D:-----5-5-5-3-3-3-7-7-5-5-5-5-5--5-x-x-x-x-x-5-3-x-x-x-x-x-3--:
A:-----5-5-5-3-3-3-7-7-5-5-5-5-5--5-x-x-x-x-x-5-3-x-x-x-x-x-3--:
E:-----3-3-3-1-1-1-5-5-3-3-3-3-3--3-x-x-x-x-x-3-1-x-x-x-x-x-1--:

e:-------------------------------------------------------------:
B:-------------------------------------------------------------:
G:----------------------------------5-4-4-4--------------------:
D:-----7-x-x-x-x-x-7-5-x-x-x-x-x-5--5-4-4-4---2-2-2--6-6-6-----:
A:-----7-x-x-x-x-x-7-5-x-x-x-x-x-5--3-2-2-2---2-2-2--6-6-6-----:
E:-----5-x-x-x-x-x-7-3-x-x-x-x-x-3------------0-0-0--4-4-4-----:

e:-------------------------------------------------------------:
B:-------------------------------------------------------------:
G:---------------------5---------------------------------------:
D:-----4-4-4--2-2-2--5-5-5-7-3--5-7-5-3~~~---------------------:
A:-----4-4-4--2-2-2--5-3-5-7-3--5-7-5-3~~~---------------------:
E:-----2-2-2--0-0-0--5---3-5-1--3-5-3-1~~~---------------------:
Hope you like the tab!!!!
Comments