Ferdinand Franz - Michael Chords & Tabs

 

Michael Chords & Tabs

Ferdinand Franz Chords & Tabs

Version: 1 Type: Chords 2 ratings
1 star 2 stars 3 stars 4 stars 5 stars
comments

Michael Chords

Michael
Guitar
Standard Tuning

h - hammer on
p - pull off
b - bend string up
r - release bend
/ - slide up
 - slide down
x - mute string
 
Intro: Palm Muted
|--------------------------------------|
|--------------------------------------|
|--------------------------------------|
|--4-4-4-6-6-6-7-7---4-4-4-6-6-6-7-7---|
|--------------------------------------|
|--------------------------------------|
[ Tab from: http://www.guitartabs.cc/tabs/f/ferdinand_franz/michael_crd.html ]
|--------------------------------------|
|--------------------------------------|
|--------------------------------------|
|------2-2-----------------------------|
|--4-4-----4-4--4-2--------------------|
|-------------------5-2----------------|
x2

|----------------------------------------------|
|-----------------------------------5-4-2/7----|
|------------------6-6-------------------------|
|--4-4-4-6-6-6-7-7------4-4-4-6-6-6------------|
|----------------------------------------------|
|----------------------------------------------|

Next bit of intro AND Verse:
|--------|
|--------|
|--11----|
|--11----|
|--9-----|
|--------|

TABBED BY J-ROCKET!!!
Comments