Fenix Tx - Tearjerker Chords & Tabs

 

Tearjerker Chords & Tabs

Fenix Tx Chords & Tabs

Version: 3 Type: Tab 0 ratings
1 star 2 stars 3 stars 4 stars 5 stars
comments

Tearjerker Tab

Fenix Tx - Tearjerker
By:Andrew Mcshan(Guitarguyx182)
Intro
|--------------------------------------------------------------------|
|--------------------------------------------------------------------|
|---14-14-14--11-11-11--12-12-12--11-11-11--9--11--7--11--7----------|
|----0--0--0--0---0--0---0--0--0---0--0--0--0---0--0--0---0----------|
|--------------------------------------------------------------------|
|--------------------------------------------------------------------|

|---------------------------------------------------------------------|
|---------------------------------------------------------------------|
|-----777777777777777--444444444444444444-----------------------------|
|-----777777777777777--444444444444444444-----------------------------|
|-----555555555555555--222222222222222222-----------------------------|
|---------------------------------------------------------------------|

Verse
|------------------------------------------------------------|
|------------------------------------------------------------|
|---------------7---------------------7------------7---------| 
|--------7-----------7----------7-----------7-----------7----|
|---5---------------------5----------------------------------| 
|------------------------------------------------------------|
[ Tab from: http://www.guitartabs.cc/tabs/f/fenix_tx/tearjerker_tab_ver_3.html ]
|------------------------------------------------------------|
|------------------------------------------------------------|
|---------------4---------------------4------------4---------|
|--------4-----------4----------4-----------4-----------4----|
|---2---------------------2----------------------------------|
|------------------------------------------------------------|
Chorus 
|---------------------------------------------|
|---------------------------------------------|
|-----------------------4444444444444---------|
|---5555555555555-------4444444444444---------|
|---5555555555555-------2222222222222---------|
|---3333333333333-----------------------------|

|--------------------------------------------------------|
|--------------------------------------------------------|
|--------------------------------------------------------|
|-555555555555555555555555555---777777777777777777777777-|
|-555555555555555555555555555---777777777777777777777777-|
|-333333333333333333333333333---555555555555555555555555-|

Bridge
|--------------------------------------------------------|
|--------------------------------------------------------|
|--------------------------------------------------------|
|----5555555555555---777777777777777777777777------------|
|----5555555555555---777777777777777777777777------------|
|----3333333333333---555555555555555555555555------------|

Your picture on the wall
Just waiting there to fall, still remind me
Of that painful holiday, can almost here you say
Please don't miss me, too long
What did I do wrong, could of sung a different song
You were my tune. Make my heart believe a want is not a need
And I'm alright without you
The days go by and the nights don't change
The stars still spell out your name, I will wait for you
The world has let me down is it you're just not around
I've lost my reason. All the memories and every smile
You gave to me you can keep them
The days go by and the nights don't change
The stars still spell out your name, I will wait for you
I will wait for you
I will wait for you
I will wait for you
I will wait for
The days go by and still
I will wait for you
Comments