Fenix Tx - Surf Song Chords & Tabs

 

Surf Song Chords & Tabs

Fenix Tx Chords & Tabs

Version: 1 Type: Tab 0 ratings
1 star 2 stars 3 stars 4 stars 5 stars
comments

Surf Song Tab

   
Band: Fenix Tx
Song:Surf Song
Tabber: Chris Caldareri
e-mail:the_hacker21@hotmail.com

e-mail me if you find any mistakes

Standart Tunning

Intro

e|-------------------------------------------------------------------------
B|-------------------------------------------------------------------------
G|---------------------------------------------------------------4-4-4-4-4-
D|-2-2-2-2-7-7-7-7-7-2-2-2-2-7-7-7-7-7-2-2-2-2-7-7-7-7-7-4-4-4-4-4-4-4-4-4-
A|-2-2-2-2-7-7-7-7-7-2-2-2-2-7-7-7-7-7-2-2-2-2-7-7-7-7-7-4-4-4-4-2-2-2-2-2-
E|-0-0-0-0-5-5-5-5-5-0-0-0-0-5-5-5-5-5-0-0-0-0-5-5-5-5-5-2-2-2-2-----------

Verse

e|-------------------------------------------------------------------------
B|-------------------------------------------------------------------------
G|---------------------------------------------------------------4-4-4-4-4-
D|-2-2-2-2-7-7-7-7-7-2-2-2-2-7-7-7-7-7-2-2-2-2-7-7-7-7-7-4-4-4-4-4-4-4-4-4-
A|-2-2-2-2-7-7-7-7-7-2-2-2-2-7-7-7-7-7-2-2-2-2-7-7-7-7-7-4-4-4-4-2-2-2-2-2-
E|-0-0-0-0-5-5-5-5-5-0-0-0-0-5-5-5-5-5-0-0-0-0-5-5-5-5-5-2-2-2-2-----------
pm * * * * * * * * * * * * * * * * * * * * * * * * * * * * * * 
[ Tab from: http://www.guitartabs.cc/tabs/f/fenix_tx/surf_song_tab.html ]
Pre-Chorus

e|---------------
B|---------------
G|-4/6\4/6\4/6/9-
D|-4/6\4/6\4/6/9-
A|-2/4\2/4\2/4/7-
E|---------------

Chorus

e|-----------------------------------------
B|-----------------------------------------
G|-9-9-9-9-9-------------------------------
D|-9-9-9-9-9-9-9-9-9-9-7-7-7-7-7-7-7-7-7-7-
A|-7-7-7-7-7-9-9-9-9-9-7-7-7-7-7-7-7-7-7-7-
E|-----------7-7-7-7-7-5-5-5-5-5-5-5-5-5-5-

Chorus End

e|---------------------------------------------------------
B|---------------------------------------------------------
G|-9-9-9-9-9-----------------------------------------------
D|-9-9-9-9-9-9-9-9-9-9-7-7-7-7-7-7-7-7-7-9-9-9-9-9-9-9-9-9-
A|-7-7-7-7-7-9-9-9-9-9-7-7-7-7-7-7-7-7-7-9-9-9-9-9-9-9-9-9-
E|-----------7-7-7-7-7-5-5-5-5-5-5-5-5-5-7-7-7-7-7-7-7-7-7-
PM                       * * * * * * * *   * * * * * * * *

Solo x4 ( play this 4 times really fast ) 

e|-5-4-2-0-7-5-4-0-
B|-----------------
G|-----------------
D|-----------------
A|-----------------
E|-----------------

That´s all you need to play Surf Song, just listen to the cd to get it 

Its pretty easy once you get the rythm of the song
Comments