Fenix Tx - Surf Song Chords & Tabs

 

Surf Song Chords & Tabs

Fenix Tx Chords & Tabs

Version: 1 Type: Bass Tab 1 rating
1 star 2 stars 3 stars 4 stars 5 stars
comments

Surf Song Bass Tab

Fenix Tx
Song:	   Surf Song
Album:     Fenix Tx
Tabbed by: BassD

                                ring=stay on the note
				>=strum
				/=slide to
Intro
G|---------------------------------------------------|
D|---------------------------------------------------|
A|--------------0--0-0-0-0-0-0-2/7--7-7-7-7-7--------|
E|-0--0-0-0-0-0--------------------------------------|

G|---------------------------------------------------------------------------|
D|---------------------------------------------------------------------------|
A|-0--0-0-4--4-5-7--------------0--0-0-0-0-0-0--------------2--2-2-2-2-2-2---|
E|-----------------0--0-0-0-0-0----------------2--2-2-2-2-2------------------|

Verse1
G|-------------------------------------------------------|
D|-------------------------------------------------------|
A|--------------0--0-0-0-0-0-0-2/7--7-7-7-7-7------------|
E|-0--0-0-0-0-0------------------------------------------|

G|---------------------------------------------------------------------------|
D|---------------------------------------------------------------------------|
A|-0--0-0-4--4-5-7--------------0--0-0-0-0-0-0--------------2--2-2-2-2-2-2---|
E|-----------------0--0-0-0-0-0----------------2--2-2-2-2-2------------------|

G|------------------------------------------------------|
D|------------------------------------------------------|
A|--------------0--0-0-0-0-0-0--------------------------|
E|-0--0-0-0-0-0----------------0--0-0-0-0-0-------------|

G|---------------------------------------------------------------------------|
D|---------------------------------------------------------------------------|
A|-0--0-0-4--4-5-7--------------0--0-0-0-0-0-0--------------2--2>------------|
E|-----------------0--0-0-0-0-0----------------2--2-2-2-2-2------------------|

Chorus
G|-----------------------------------------------------------------|
D|-----------------------------------------------------------------|
A|--------------2--2-2-2-2-2-2-0--0-0-0-0-0--0--0-0-0-0-0-0--------|
E|-0--0-0-0-0-0----------------------------------------------------|

G|-----------------------------------------------------------------|
D|-----------------------------------------------------------------|
A|--------------2--2-2-2-2-2-2-0--0-0-0-0-0--0--0-0-0-0-0-0--------|
E|-0--0-0-0-0-0----------------------------------------------------|

G|-----------------------------------------------------------------|
D|-2--2-2-2-2-2----------------------------------------------------|
A|--------------2--2-2-2-2-2-2-0--0-0-0-0-0--0--0-0-0-0-0-0--------|
E|-----------------------------------------------------------------|

G|-----------------------------------------------------------------|
D|-----------------------------------------------------------------|
A|--------------2--2-2-2-2-2-2-0-(no bass)-------------------------|
E|-0--0-0-0-0-0----------------------------------------------------|

Verse2
G|---------------------------------------------------------|
D|---------------------------------------------------------|
A|--------------0--0-0-0-0-0-0-2/7--7-7-7-7-7--------------|
E|-0--0-0-0-0-0--------------------------------------------|

G|---------------------------------------------------------------------------|
D|---------------------------------------------------------------------------|
A|-0--0-0-4--4-5-7--------------0--0-0-0-0-0-0--------------2--2-2-2-2-2-2---|
E|-----------------0--0-0-0-0-0----------------2--2-2-2-2-2------------------|

G|---------------------------------------------------------|
D|---------------------------------------------------------|
A|--------------0--0-0-0-0-0-0-2/7--7-7-7-7-7--------------|
E|-0--0-0-0-0-0--------------------------------------------|
[ Tab from: http://www.guitartabs.cc/tabs/f/fenix_tx/surf_song_btab.html ]
G|---------------------------------------------------------------------------|
D|---------------------------------------------------------------------------|
A|-0--0-0-4--4-5-7--------------0--0-0-0-0-0-0--------------2--2-2-2-2-2-2---|
E|-----------------0--0-0-0-0-0----------------2--2-2-2-2-2------------------|

G|---------------------------------------------------------|
D|---------------------------------------------------------|
A|--------------0--0-0-0-0-0-0-2/7--7-7-7-7-7--------------|
E|-0--0-0-0-0-0--------------------------------------------|

G|---------------------------------------------------------------------------|
D|---------------------------------------------------------------------------|
A|-0--0-0-4--4-5-7--------------0--0-0-0-0-0-0--------------2--2>------------|
E|-----------------0--0-0-0-0-0----------------2--2-2-2-2-2------------------|

Chorus
G|-----------------------------------------------------------------|
D|-----------------------------------------------------------------|
A|--------------2--2-2-2-2-2-2-0--0-0-0-0-0--0--0-0-0-0-0-0--------|
E|-0--0-0-0-0-0----------------------------------------------------|

G|-----------------------------------------------------------------|
D|-----------------------------------------------------------------|
A|--------------2--2-2-2-2-2-2-0--0-0-0-0-0--0--0-0-0-0-0-0--------|
E|-0--0-0-0-0-0----------------------------------------------------|

G|-----------------------------------------------------------------|
D|-2--2-2-2-2-2----------------------------------------------------|
A|--------------2--2-2-2-2-2-2-0--0-0-0-0-0--0--0-0-0-0-0-0--------|
E|-----------------------------------------------------------------|

G|-----------------------------------------------------------------|
D|-----------------------------------------------------------------|
A|--------------2--2-2-2-2-2-2-0>-2>-------------------------------|
E|-0--0-0-0-0-0----------------------------------------------------|

"You know that I don't mind..."
G|-------------------------------------------------------------------|
D|-------------------------------------------------------------------|
A|-----------------------2--2-2-2-2-2-2--------------2--2-2-2-2-2-2--|
E|-0ring----2--2-2-2-2-2----------------2--2-2-2-2-2-----------------|

"Staring at the sea all day..."
G|-------------------------------------------------------------------|
D|-------------------------------------------------------------------|
A|-----------------------2--2-2-2-2-2-2--------------2--2-2-2-2-2-2--|
E|-0ring----2--2-2-2-2-2----------------2--2-2-2-2-2-----------------|

End with Chorus
G|-----------------------------------------------------------------|
D|-2--2-2-2-2-2----------------------------------------------------|
A|--------------2--2-2-2-2-2-2-0--0-0-0-0-0--0--0-0-0-0-0-0--------|
E|-----------------------------------------------------------------|

G|-----------------------------------------------------------------|
D|-2--2-2-2-2-2----------------------------------------------------|
A|--------------2--2-2-2-2-2-2-0--0-0-0-0-0--0--0-0-0-0-0-0--------|
E|-----------------------------------------------------------------|

G|-----------------------------------------------------------------|
D|-2--2-2-2-2-2----------------------------------------------------|
A|--------------2--2-2-2-2-2-2-0--0-0-0-0-0--0--0-0-0-0-0-0--------|
E|-----------------------------------------------------------------|

G|-------------------------------------------------------------------------------|
D|-------------------------------------------------------------------------------|
A|--------------2--2-2-2-2-2-2-0--0-0--0--0--0-0--0-2--2-2--2--2--2-2--2---------|
E|-0--0-0-0-0-0----------------------------------------------------------0ring---|

Enjoy!
Questions,info.Emailme at: rancid_ska@hotmail.com

===============================================================================

Comments