Fenix Tx - Speechless Chords & Tabs

 

Speechless Chords & Tabs

Fenix Tx Chords & Tabs

Version: 2 Type: Tab 0 ratings
1 star 2 stars 3 stars 4 stars 5 stars
comments

Speechless Tab

   
Intro/Verse
Palm Muted
       E        G#       A      B
e|---------------------------------------------------------|
B|---------------------------------------------------------|
G|-----9---------------------------------------------------|
D|-----9--------6--------7------9--------------------------|
A|-----7--------6--------7------9--------------------------|
E|--------------4--------5------7--------------------------|

Riff 1 (this is what damon plays)
e|---------------------------------------------------------|
B|-------5-4-5---4-5-4--5-4-5--7-5-4-5---------------------|
G|---------------------------------------------------------|
D|---------------------------------------------------------|
A|---------------------------------------------------------|
E|---------------------------------------------------------|
[ Tab from: http://www.guitartabs.cc/tabs/f/fenix_tx/speechless_tab_ver_2.html ]
Chorus
           D     E     B
e|---------------------------------------------------------|
B|---------------------------------------------------------|
G|---------7-----9-----------------------------------------|
D|---------7-----9-----9-----------------------------------|
A|---------5-----7-----9-----------------------------------|
E|---------------------7-----------------------------------|

After Chorus (they play two chords softly
           A     G#
e|---------------------------------------------------------|
B|---------------------------------------------------------|
G|---------------------------------------------------------|
D|---------7-----6-----------------------------------------|
A|---------7-----6-----------------------------------------|
E|---------5-----4-----------------------------------------|
Comments