Fenix Tx - Speechless Chords & Tabs

 

Speechless Chords & Tabs

Fenix Tx Chords & Tabs

Version: 1 Type: Tab 0 ratings
1 star 2 stars 3 stars 4 stars 5 stars
comments

Speechless Tab

   
Name: Ben Gosling

Tabs: Band: Fenix Tx
Song: Speechless
Album: Fenix Tx

This is a simple but great song for two guitars. Also,
except where noted, play a high E (x799xx). All chords
are barre chords.


Intro: (palm muted)

E       Ab              A          B
I never said a thing to hurt you

E            Ab               A          Ab
It's what i didn't say that made you cry

E           Ab        A                           B
And in all honesty I never would have deserted you

E        Ab                    A          B
I never dreamt that you would say goodbye

Riff 1:

guitar 1
E|--------------------------------|
B|--------------------------------|
G|--9-8-9-8-9-8-9-8-9-11-9-8------| (x2)
D|--------------------------------|
A|--------------------------------|
E|--------------------------------|

	then...

guitar 1
E|--------------------------------|       
B|--------------------------------|       
G|--9-8-9-8-9-8-9-8-9-11-9-8------|  (x2) 
D|--------------------------------|       
A|--------------------------------|       
E|--------------------------------|       

	and...

guitar 2
E|-----------------------------------------------|
B|12-12-12-12-12-12-12-12-12-12-12-12-12-12-12-12|
G|-----------------------------------------------| (x2)
D|-----------------------------------------------|
A|-----------------------------------------------|
E|-----------------------------------------------|


Verse: (palm muted)

E       Ab              A          B
I never said a thing to hurt you

E            Ab               A          B
It's what i didn't say that made you cry

E           Ab        A                           B
And in all honesty I never would have deserted you
[ Tab from: http://www.guitartabs.cc/tabs/f/fenix_tx/speechless_tab.html ]
E        Ab                    A                  B
I never dreamt that you would say goodbye

 
Chorus:

Db    E        B                     
I'll close my eyes

Db    E       B
Tell another lie

Db       E      B
Think of yesterday

		   A       Ab
And everything you said

	 B
There's nothing left to say


(Riff 1)

Verse: (palm muted)

E           Ab            A               B
It's just another day without you here

E       Ab               A                           B
And it seems a long long time since you went away and i fear

E           Ab                  A         B
I'll dream another dream about you dear

E        Ab                  A     B
Now i'm afraid to close my eyes

(Chorus)

(Riff 1)

Riff 2:

(Bass Guitar)
G|---------------------------------|
D|---------------------------------|
A|-7-7-7-7-------------------------|  (x4)
E|---------4-4-4-4-5-5-5-5-5-5-5-7-|

guitar 1
E|-------------|      
B|-------------|      
G|-11-9-8-9----|  (x2) 
D|-------------|     
A|-------------|       
E|-------------|  

I'll dream another dream of you 
As that's all that i can do
I'll dream another dream today
And i'll dream my life away


(slide your pick down the fretboard at the beginning
of the last line above, then...)

Bridge: (With A low E)

E     Ab       A                        B
I'll close my eyes (so i don't have to see you there)

E     Ab      A                B
Tell another lie (anything to keep you here)

E         Ab    A               B         
Think of yesterday, (think of everything you say)   

E         Ab    A               B

(chorus)

(riff 1)



Comments