Fenix Tx - Phoebe Cates Chords & Tabs

 

Phoebe Cates Chords & Tabs

Fenix Tx Chords & Tabs

Version: 2 Type: Tab 0 ratings
1 star 2 stars 3 stars 4 stars 5 stars
comments

Phoebe Cates Tab

   
~~~~~~~~~~~~~~~~~~~~~~~~~~~~~~~~~~~~
Fenix TX - "Phoebe Cates"
Album: "Lechuza"

~~~~~~~~~~~~~~~~~~~~~~~~~~~~~~~~~~~~

Tabbed by Alan Good (kentucky_fried_children_@hotmail.com)
Tuning: Dropped D

this is the fenix tx song best known from the american pie 2
soundtrack, very easy to play. The strumming pattern quite fast, 
about double the amount of strokes i've put on the tab. Chords are 
basic, G5, C5, D5, E5 etc


INTRO:

e-----------------------------------------
b-----------------------------------------
g-----------5-5-5/4-------------7-7------- (repeat until vocals
d--5-5-5-5--5-5-5/4--2-2-2--7-7-7-7-------    come in)
a--5-5-5-5--3-3-3/2--2-2-2--7-7-5-5-------
d--5-5-5-5-----------2-2-2--7-7-----------




VERSE: (pretty much the same chords but the bass does most of the verses
so just play each chord once. The slide to the B chord that was in the intro
is optional. probably.)

e-----------------------------------------
b-----------------------------------------
g-----------5-------------------7---------
d--5--------5--------2------7---7---------
a--5--------3--------2------7---5---------
d--5-----------------2------7-------------

[ Tab from: http://www.guitartabs.cc/tabs/f/fenix_tx/phoebe_cates_tab_ver_2.html ]
CHORUS: (slide from chord to chord as you wish)

e-----------------------------------------
b-----------------------------------------
g--5-5-5-5--7-7-7-7--9-9--7-7--5-5-5-5--7-
d--5-5-5-5--7-7-7-7--9-9--7-7--5-5-5-5--7-
a--3-3-3-3--5-5-5-5--7-7--5-5--3-3-3-3--5-
d-----------------------------------------

BASS RIFF: (obviously dont play this but i put it
in to complete the song order)

a---------2-2----------
e-5-5-5-5-----2-2-2-2--


BREAKDOWN PART ONE:

e-----------------------------------------
b-----------------------------------------
g-----------------------------------------
d-5-5-5-5--9-9--2-2-2-2-------------------    * = Palm Muted
a-5-5-5-5--9-9--2-2-2-2-------------------
d-5-5-5-5--9-9--2-2-2-2-------------------
  * * * *  * *  * * * *


BREAKDOWN PART TWO:

e-----------------------------------------
b-----------------------------------------
g-----------------------------------------
d-5-5--9-9--2-2--0-0----------------------
a-5-5--9-9--2-2--0-0----------------------
d-5-5--9-9--2-2--0-0----------------------


SONG ORDER:

Intro		x2
Verse		x2
Chorus		x2
Intro		x2
Verse		x2
Chorus		x2
Bass Riff	x1
Breakdown 1	x3
Breakdown 2	x4
Chorus		x2
Intro		x4





Comments