Fenix Tx - No Lie Chords & Tabs

 

No Lie Chords & Tabs

Fenix Tx Chords & Tabs

Version: 2 Type: Bass Tab 0 ratings
1 star 2 stars 3 stars 4 stars 5 stars
comments

No Lie Bass Tab

Song: No Lie
Band: Fenix Tx
Tabbed By: Kurt      wsu182@hotmail.com

Intro/Verse
G------------------------------
D------------------------------
A--------333333---------111111-
E-111111--------333333---------

Solo?? It's pretty close
G--------------------------------------320---
D-----3235--------2--23--------------------3-
A------------333---3----------5323-111-------
E-111---------------------333----------------
[ Tab from: http://www.guitartabs.cc/tabs/f/fenix_tx/no_lie_btab_ver_2.html ]
Chorus  "Why Didn't I Lie"
G-------------------------------
D-3333--------------------------
A-------------33333333-11111111-
E-------1111--------------------

Bridge
G------------------------------
D-----3---2-3-----5------------    X3
A-------3---------------2-3----
E-11-----------33-----3--------

G------
D------
A-1-3--
E------

Back to Chorus.


That's it. But I'm pretty sure of the solo, but unsure of the bridge, so let 
me know if you get it right.
Comments