Fenix Tx - Minimum Wage Chords & Tabs

 

Minimum Wage Chords & Tabs

Fenix Tx Chords & Tabs

Version: 2 Type: Bass Tab 0 ratings
1 star 2 stars 3 stars 4 stars 5 stars
comments

Minimum Wage Bass Tab

Song: Minimum Wage
Band: Fenix Tx
Album: Fenix Tx
Tabbed By: Kurt   wsu182@hotmail.com

Intro
G----------
D-----------
A-----------
E--0---5---7

Verse
G-------------------------------------
D-------------------------------------
A-7777777-----------------------------
E----------7777777--55555555--77777777
[ Tab from: http://www.guitartabs.cc/tabs/f/fenix_tx/minimum_wage_btab_ver_2.html ]
Prechorus "Itís guaranteed Iím making"
G-------------------------------
D-------------------------------
A-----------------777777-555-4--
E--555555-777777----------------

Chorus "Minimum Wage"
G-------------
D-------------
A-7----44-----
E---55----55--

Fill
G-------------
D----6--7--9--
A-7-----------
E-------------

ORDER
Intro          x1
Verse          x2
Prechorus      x2
Chorus         x3
Fill           x1
Verse          x4
Prechorus      x2
Chorus         x3
Fill           x1
Verse          x4 (during solo)
Prechorus      x2
Chorus         x4
End on E-0
Comments