Fenix Tx - Katie W Chords & Tabs

 

Katie W Chords & Tabs

Fenix Tx Chords & Tabs

Version: 1 Type: Tab 0 ratings
1 star 2 stars 3 stars 4 stars 5 stars
comments

Katie W Tab

 ** Fenix Tx - Katie W
    tabbed by Erik Lyngved
    bagboy313@hotmail.com

 I hope this is accurate, especially the solo. Have fun with it! -Erik

 Intro (clean, 2x)
e|------------------------------------------------------------------------|
B|------------------------------------------------------------------------|
G|------------------------------------------------------------------------|
D|---3-3--3h4p3p1-3--3-3--1h3p1-------------------------------------------|
A|---4-4-------------1-1--------2-3--3-3--4-4/6---------------------------|
E|-----------------------------------1-1--2-2/4---------------------------|

 Intro cont. and Chorus (4x)
e|------------------------------------------------------------------------|
B|------------------------------------------------------------------------|
G|---6-6---3-3------------------------------------------------------------|
D|---6-6---3-3---3-3--4--4/6----------------------------------------------|
A|---4-6---1-1---3-3--4--4/6----------------------------------------------|
E|---------------1-1--2--2/4----------------------------------------------|
[ Tab from: http://www.guitartabs.cc/tabs/f/fenix_tx/katie_w_tab.html ]
 Verses (2x)
e|------------------------------------------------------------------------|
B|------------------------------------------------------------------------|
G|------------------------------------------------------------------------|
D|---6-6-6-6-3-3-3-3---------------------6-6-3-3-3-3----------------------|
A|---4-4-4-4-1-1-1-1-3-3-3-3-4-4-4--3--3-4-4-1-1-1-1-3-3-3-3-4--4--3------|
E|-------------------1-1-1-1-2-2-2--1--1-------------1-1-1-1-2--2--1------|
    |----------palm mute----------|   |-------palm mute-------|

 Bridge (rythym)
e|------------------------------------------------------------------------|
B|------------------------------------------------------------------------|
G|---6-6-6-6-8-8-8-8--10--10--10--10--11--11--11--11----------------------|
D|---6-6-6-6-8-8-8-8--10--10--10--10--11--11--11--11----------------------|
A|---4-4-4-4-6-6-6-6--8---8---8---8---9---9---9---9-----------------------|
E|------------------------------------------------------------------------|

 Bridge (lead)
e|---14-13---13--13-14-16-13-11-------------13--13-14-16-18-16-13-11------|
B|----(8x)-14--14--------------14-13-14---14--14--------------------14----|
G|-------------------------------------13---------------------------------|
D|------------------------------------------------------------------------|
A|------------------------------------------------------------------------|
E|------------------------------------------------------------------------|
Comments