Fenix Tx - Jolly Green Dumbass Chords & Tabs

 

Jolly Green Dumbass Chords & Tabs

Fenix Tx Chords & Tabs

Version: 2 Type: Bass Tab 0 ratings
1 star 2 stars 3 stars 4 stars 5 stars
comments

Jolly Green Dumbass Bass Tab

Song: Jolly Green Dumbass
Band: Fenix Tx
Album: Fenix Tx
Tabbed By: Kurt wsu182@hotmail.com

Intro
G-------------------
D-------------------
A-555---------------
E-------555-333-555-
[ Tab from: http://www.guitartabs.cc/tabs/f/fenix_tx/jolly_green_dumbass_btab_ver_2.html ]
Verse
G-----------------------------------------
D-------4-5-7-----------------------------
A-555---------------7-5-4-----------------
E--------------555---------333333-555555-

Chorus
G--------------------------------
D----------------------77-5-4----
A-----------------555----------5-
E--333333-555555----------------

End of Chorus   "Leave the past behind..."
G------------------------------
D------------------------------
A-----------------5-3-2-
E--333333-555555---------
Comments