Fenix Tx - Ben Chords & Tabs

 

Ben Chords & Tabs

Fenix Tx Chords & Tabs

Version: 1 Type: Bass Tab 0 ratings
1 star 2 stars 3 stars 4 stars 5 stars
comments

Ben Bass Tab

Song: Ben
Band: Fenix Tx
Album: Fenix Tx
Tabbed By: Kurt      wsu182@hotmail.com

>means to play as many times as you want to.

Intro
G-------------------
D-------------------
A-------------------
E-0-00-00-00-00-00--

Verse
G---------------
D---------------
A----3>-----5---
E-0>-----3>-----
[ Tab from: http://www.guitartabs.cc/tabs/f/fenix_tx/ben_btab.html ]
Chorus
G--------------------------
D--------------------7-5-4-
A-33333333-------55--------
E----------3333------------

Bridge "Take a different road..."
G--------------------------
D-------------------7-5-4--
A------3>-------5>---------
E-0>-------3>--------------

Playing Order
Intro   x1
Verse   x4
Intro   x1
Verse   x4
Intro   x1
Chorus  x4
Verse   x6
Intro   x1
Chorus  x4
Verse   x4
Bridge  x2
Chorus  x4
Verse   x4
Intro   x1

That's it...

Comments