Fenix Tx - All My Fault Chords & Tabs

 

All My Fault Chords & Tabs

Fenix Tx Chords & Tabs

Version: 6 Type: Tab 0 ratings
1 star 2 stars 3 stars 4 stars 5 stars
comments

All My Fault Tab

-------------------------------------------------------------------------------
Fenix TX – All My Fault
-------------------------------------------------------------------------------

Right this is a well good song shame bout the band! But I noticed on the
other tabs that they where good but slightly wrong so just made the minor
alteration to make it correct and it took me forever to put onto paper
so please rate what you think of it and enjoy!!!

Key:
** = Palm Mute
~~ = Let Ring
XX = Left Hand Damping
<< = Pick Slide
^^ = Bend String
h = Hammer On
p = Pull Off

Intro  
e|--------------------------------------------------------------------|
B|--------------------------------------------------------------------|
G|-7~-777777777777777-7~-7~-77777777777777----------------------------|
D|-7~-777777777777777-7~-7~-77777777777777--5~-55555555--7~-77777777--|
A|-5~-555555555555555-5~-5~-55555555555555--5~-55555555--7~-77777777—-|
E|------------------------------------------3~-33333333—-5~-55555555--|
      ***************       **************     ********     ********

Chorus
e|----------------------------------------|
B|----------------------------------------|
G|-44444444----------77777777-------------|
D|-44444444-55555555-77777777-77777777----|
A|-22222222-55555555-55555555-77777777----|
E|----------33333333----------55555555----|

Chorus (guitar 2)
e|----------------------------------------------------------------|
B|----------------------------------------------------------------|
G|-44444444----------7-7-9-9-11-11-12--12-11-11-9-9--11-11-9-9----|
D|-44444444-55555555-x-x-x-x-x--x--x---x--x--x--x-x--x--x--x-x----|
A|-22222222-55555555-5-5-7-7-9--9--10--10-9--9--7-7--9—-9--7-7----|
E|----------33333333----------------------------------------------|

Bridge
e|------------------------------------------------------------|
B|------------------------------------------------------------|
G|-77777777-7-6----------7-6----------7-6---------------------|
D|-77777777-7-6-55555555-7-6-77777777-7-6-99999999-5555-7777--|
A|-55555555-5-4-55555555-5-4-77777777-5-4-99999999-5555-7777--|
E|--------------33333333-----55555555-----77777777-3333-5555--|
[ Tab from: http://www.guitartabs.cc/tabs/f/fenix_tx/all_my_fault_tab_ver_6.html ]
Verse 2
e|--------------------------------------|
B|--------------------------------------|
G|-7-77777777777------------------------|
D|-7-77777777777-5-555555-7-777777------|
A|-5-55555555555-5-555555-7-777777------|
E|---------------3-333333-5-555555------|
     *********     ****     ****

Solo
e|-----------------------------------------------------------------------|
B|-----7-8-7-8-10-8-7-8-7-7h8p7---------------------------------------8--|
G|-7-9--------------------------9-7-6-7-6-7-9-7-6-6-6h7p6-----6-7-6-7----|
D|--------------------------------------------------------9-9------------|
A|-----------------------------------------------------------------------|
E|-----------------------------------------------------------------------|

Solo cont….
e|----------------------------------9-9-9-10-10-10-12-12-10-10-9h10p9----|
B|-7-8-10-8-7-8-10-8-8-7-7-10-10-10--------------------------------------|
G|-----------------------------------------------------------------------|
D|-----------------------------------------------------------------------|
A|-----------------------------------------------------------------------|
E|-----------------------------------------------------------------------|

Solo cont….
e|-----------------------------------------------------------------------|
B|-10-8-7-8-7-8-10-8-7-8-7h8p7--------------------------------------8-7--|
G|-----------------------------9-7-6-7-6-7-9-7-6-7-6h7p6-----6-7-6-7-----|
D|-------------------------------------------------------9-9-------------|
A|-----------------------------------------------------------------------|
E|-----------------------------------------------------------------------|

Solo cont…
e|---------------------------------------------------------|
B|-10-8-7-10-12-10-8-10-8-10-8h10p8-7-8-7-8-7h8p7----------|
G|------------------------------------------------9-7-7^^--|
D|---------------------------------------------------------|
A|---------------------------------------------------------|
E|---------------------------------------------------------|

Verse 3
e|-XXXX-------------|
B|-XXXX-------------|
G|-XXXX—-7<<<-------|
D|-XXXX—-7<<<-------|
A|-XXXX—-5<<<-------|
E|-XXXX-------------|


Song Layout

Intro x2 (but the second time don’t palm mute)
Chorus x2
Bridge
Verse 2 x2
Chorus x2
Solo (play bridge behind it)
Verse 3 x2 (then just pick slide the top string)
Chorus x2
Bridge x4

Rate my tab please e-mail – funkeymonkey10@hotmail.com
===============================================================================
Comments